ISO-10303-21;
HEADER;
/* Generated by software containing ST-Developer
 * from STEP Tools, Inc. (www.steptools.com) 
 */

FILE_DESCRIPTION(
/* description */ (''),
/* implementation_level */ '2;1');

FILE_NAME(
/* name */ '08225.080X_3D.stp',
/* time_stamp */ '2024-12-11T14:20:23+01:00',
/* author */ ('CAD'),
/* organization */ (''),
/* preprocessor_version */ 'ST-DEVELOPER v20',
/* originating_system */ 'AutoCAD Mechanical',
/* authorisation */ '');

FILE_SCHEMA (('AUTOMOTIVE_DESIGN { 1 0 10303 214 3 1 1 }'));
ENDSEC;

DATA;
#10=MECHANICAL_DESIGN_GEOMETRIC_PRESENTATION_REPRESENTATION('',(#28,#29),
#511);
#11=PRESENTATION_LAYER_ASSIGNMENT('5','H\X\DCLSE',(#30));
#12=PRESENTATION_LAYER_ASSIGNMENT('4','ROHR',(#31));
#13=SHAPE_REPRESENTATION_RELATIONSHIP('SRR','None',#520,#14);
#14=ADVANCED_BREP_SHAPE_REPRESENTATION('',(#30,#31),#509);
#15=ITEM_DEFINED_TRANSFORMATION($,$,#277,#322);
#16=(
REPRESENTATION_RELATIONSHIP($,$,#521,#520)
REPRESENTATION_RELATIONSHIP_WITH_TRANSFORMATION(#15)
SHAPE_REPRESENTATION_RELATIONSHIP()
);
#17=CONTEXT_DEPENDENT_SHAPE_REPRESENTATION(#16,#519);
#18=NEXT_ASSEMBLY_USAGE_OCCURRENCE('B3C','B3C','B3C',#523,#524,'B3C');
#19=CONICAL_SURFACE('',#292,44.0656125524047,0.0872664625997222);
#20=CONICAL_SURFACE('',#299,42.4625566823701,0.0872664625997187);
#21=CONICAL_SURFACE('',#312,49.6192887089375,0.592915906200921);
#22=CONICAL_SURFACE('',#314,55.3634518818435,0.977880420594);
#23=CONICAL_SURFACE('',#316,50.9461924726249,0.592915906200914);
#24=TOROIDAL_SURFACE('',#286,34.8999999999998,9.6);
#25=TOROIDAL_SURFACE('',#302,32.8999999999997,10.);
#26=TOROIDAL_SURFACE('',#306,52.4999999999993,9.59999999999957);
#27=TOROIDAL_SURFACE('',#319,52.5000000000009,8.00000000000115);
#28=STYLED_ITEM('',(#534),#30);
#29=STYLED_ITEM('',(#534),#31);
#30=MANIFOLD_SOLID_BREP('1DD0',#274);
#31=MANIFOLD_SOLID_BREP('1DD3',#275);
#32=FACE_BOUND('',#56,.T.);
#33=FACE_BOUND('',#59,.T.);
#34=FACE_BOUND('',#64,.T.);
#35=PLANE('',#281);
#36=PLANE('',#285);
#37=PLANE('',#297);
#38=FACE_OUTER_BOUND('',#54,.T.);
#39=FACE_OUTER_BOUND('',#55,.T.);
#40=FACE_OUTER_BOUND('',#57,.T.);
#41=FACE_OUTER_BOUND('',#58,.T.);
#42=FACE_OUTER_BOUND('',#60,.T.);
#43=FACE_OUTER_BOUND('',#61,.T.);
#44=FACE_OUTER_BOUND('',#62,.T.);
#45=FACE_OUTER_BOUND('',#63,.T.);
#46=FACE_OUTER_BOUND('',#65,.T.);
#47=FACE_OUTER_BOUND('',#66,.T.);
#48=FACE_OUTER_BOUND('',#67,.T.);
#49=FACE_OUTER_BOUND('',#68,.T.);
#50=FACE_OUTER_BOUND('',#69,.T.);
#51=FACE_OUTER_BOUND('',#70,.T.);
#52=FACE_OUTER_BOUND('',#71,.T.);
#53=FACE_OUTER_BOUND('',#72,.T.);
#54=EDGE_LOOP('',(#180,#181,#182,#183));
#55=EDGE_LOOP('',(#184));
#56=EDGE_LOOP('',(#185));
#57=EDGE_LOOP('',(#186,#187,#188,#189));
#58=EDGE_LOOP('',(#190));
#59=EDGE_LOOP('',(#191));
#60=EDGE_LOOP('',(#192,#193,#194,#195,#196,#197));
#61=EDGE_LOOP('',(#198,#199,#200,#201,#202));
#62=EDGE_LOOP('',(#203,#204,#205,#206,#207,#208));
#63=EDGE_LOOP('',(#209));
#64=EDGE_LOOP('',(#210));
#65=EDGE_LOOP('',(#211,#212,#213,#214,#215));
#66=EDGE_LOOP('',(#216,#217,#218,#219,#220,#221));
#67=EDGE_LOOP('',(#222,#223,#224,#225,#226,#227));
#68=EDGE_LOOP('',(#228,#229,#230,#231,#232));
#69=EDGE_LOOP('',(#233,#234,#235,#236));
#70=EDGE_LOOP('',(#237,#238,#239,#240,#241));
#71=EDGE_LOOP('',(#242,#243,#244,#245,#246,#247));
#72=EDGE_LOOP('',(#248,#249,#250,#251,#252,#253));
#73=LINE('',#432,#82);
#74=LINE('',#439,#83);
#75=LINE('',#455,#84);
#76=LINE('',#461,#85);
#77=LINE('',#467,#86);
#78=LINE('',#490,#87);
#79=LINE('',#493,#88);
#80=LINE('',#497,#89);
#81=LINE('',#504,#90);
#82=VECTOR('',#331,63.5);
#83=VECTOR('',#340,54.6999999999998);
#84=VECTOR('',#361,44.0656125524047);
#85=VECTOR('',#368,44.4999999999998);
#86=VECTOR('',#375,42.4625566823701);
#87=VECTOR('',#404,49.6192887089375);
#88=VECTOR('',#407,55.3634518818435);
#89=VECTOR('',#412,50.946192472625);
#90=VECTOR('',#423,42.8999999999999);
#91=CIRCLE('',#279,63.4999999999999);
#92=CIRCLE('',#280,63.5);
#93=CIRCLE('',#282,54.6999999999998);
#94=CIRCLE('',#284,54.6999999999999);
#95=CIRCLE('',#287,44.4634691016805);
#96=CIRCLE('',#288,44.4634691016805);
#97=CIRCLE('',#289,9.6);
#98=CIRCLE('',#290,44.4999999999998);
#99=CIRCLE('',#291,44.4999999999998);
#100=CIRCLE('',#293,43.6312251048097);
#101=CIRCLE('',#295,44.4999999999998);
#102=CIRCLE('',#296,44.4999999999998);
#103=CIRCLE('',#298,42.0251133647405);
#104=CIRCLE('',#300,42.8619469809172);
#105=CIRCLE('',#301,42.8619469809172);
#106=CIRCLE('',#303,10.);
#107=CIRCLE('',#304,42.8999999999997);
#108=CIRCLE('',#305,42.8999999999997);
#109=CIRCLE('',#307,42.8999999999997);
#110=CIRCLE('',#308,9.59999999999957);
#111=CIRCLE('',#309,44.5385774178751);
#112=CIRCLE('',#310,44.5385774178751);
#113=CIRCLE('',#311,42.8999999999997);
#114=CIRCLE('',#313,54.6999999999998);
#115=CIRCLE('',#315,56.0269037636873);
#116=CIRCLE('',#317,45.8654811815627);
#117=CIRCLE('',#318,45.8654811815627);
#118=CIRCLE('',#320,8.00000000000115);
#119=VERTEX_POINT('',#429);
#120=VERTEX_POINT('',#431);
#121=VERTEX_POINT('',#435);
#122=VERTEX_POINT('',#438);
#123=VERTEX_POINT('',#443);
#124=VERTEX_POINT('',#444);
#125=VERTEX_POINT('',#447);
#126=VERTEX_POINT('',#449);
#127=VERTEX_POINT('',#453);
#128=VERTEX_POINT('',#457);
#129=VERTEX_POINT('',#458);
#130=VERTEX_POINT('',#463);
#131=VERTEX_POINT('',#466);
#132=VERTEX_POINT('',#468);
#133=VERTEX_POINT('',#472);
#134=VERTEX_POINT('',#474);
#135=VERTEX_POINT('',#478);
#136=VERTEX_POINT('',#479);
#137=VERTEX_POINT('',#481);
#138=VERTEX_POINT('',#483);
#139=VERTEX_POINT('',#488);
#140=VERTEX_POINT('',#492);
#141=VERTEX_POINT('',#496);
#142=VERTEX_POINT('',#498);
#143=EDGE_CURVE('',#119,#119,#91,.T.);
#144=EDGE_CURVE('',#119,#120,#73,.T.);
#145=EDGE_CURVE('',#120,#120,#92,.T.);
#146=EDGE_CURVE('',#121,#121,#93,.T.);
#147=EDGE_CURVE('',#121,#122,#74,.T.);
#148=EDGE_CURVE('',#122,#122,#94,.T.);
#149=EDGE_CURVE('',#123,#124,#95,.T.);
#150=EDGE_CURVE('',#124,#123,#96,.T.);
#151=EDGE_CURVE('',#123,#125,#97,.T.);
#152=EDGE_CURVE('',#125,#126,#98,.T.);
#153=EDGE_CURVE('',#126,#125,#99,.T.);
#154=EDGE_CURVE('',#127,#127,#100,.T.);
#155=EDGE_CURVE('',#127,#124,#75,.T.);
#156=EDGE_CURVE('',#128,#129,#101,.T.);
#157=EDGE_CURVE('',#129,#128,#102,.T.);
#158=EDGE_CURVE('',#128,#126,#76,.T.);
#159=EDGE_CURVE('',#130,#130,#103,.T.);
#160=EDGE_CURVE('',#130,#131,#77,.T.);
#161=EDGE_CURVE('',#132,#131,#104,.T.);
#162=EDGE_CURVE('',#131,#132,#105,.T.);
#163=EDGE_CURVE('',#132,#133,#106,.T.);
#164=EDGE_CURVE('',#133,#134,#107,.T.);
#165=EDGE_CURVE('',#134,#133,#108,.T.);
#166=EDGE_CURVE('',#135,#136,#109,.T.);
#167=EDGE_CURVE('',#136,#137,#110,.T.);
#168=EDGE_CURVE('',#138,#137,#111,.T.);
#169=EDGE_CURVE('',#137,#138,#112,.T.);
#170=EDGE_CURVE('',#136,#135,#113,.T.);
#171=EDGE_CURVE('',#139,#139,#114,.T.);
#172=EDGE_CURVE('',#139,#138,#78,.T.);
#173=EDGE_CURVE('',#139,#140,#79,.T.);
#174=EDGE_CURVE('',#140,#140,#115,.T.);
#175=EDGE_CURVE('',#140,#141,#80,.T.);
#176=EDGE_CURVE('',#142,#141,#116,.T.);
#177=EDGE_CURVE('',#141,#142,#117,.T.);
#178=EDGE_CURVE('',#129,#142,#118,.T.);
#179=EDGE_CURVE('',#135,#134,#81,.T.);
#180=ORIENTED_EDGE('',*,*,#143,.F.);
#181=ORIENTED_EDGE('',*,*,#144,.T.);
#182=ORIENTED_EDGE('',*,*,#145,.T.);
#183=ORIENTED_EDGE('',*,*,#144,.F.);
#184=ORIENTED_EDGE('',*,*,#143,.T.);
#185=ORIENTED_EDGE('',*,*,#146,.F.);
#186=ORIENTED_EDGE('',*,*,#146,.T.);
#187=ORIENTED_EDGE('',*,*,#147,.T.);
#188=ORIENTED_EDGE('',*,*,#148,.F.);
#189=ORIENTED_EDGE('',*,*,#147,.F.);
#190=ORIENTED_EDGE('',*,*,#145,.F.);
#191=ORIENTED_EDGE('',*,*,#148,.T.);
#192=ORIENTED_EDGE('',*,*,#149,.T.);
#193=ORIENTED_EDGE('',*,*,#150,.T.);
#194=ORIENTED_EDGE('',*,*,#151,.T.);
#195=ORIENTED_EDGE('',*,*,#152,.T.);
#196=ORIENTED_EDGE('',*,*,#153,.T.);
#197=ORIENTED_EDGE('',*,*,#151,.F.);
#198=ORIENTED_EDGE('',*,*,#154,.F.);
#199=ORIENTED_EDGE('',*,*,#155,.T.);
#200=ORIENTED_EDGE('',*,*,#149,.F.);
#201=ORIENTED_EDGE('',*,*,#150,.F.);
#202=ORIENTED_EDGE('',*,*,#155,.F.);
#203=ORIENTED_EDGE('',*,*,#156,.T.);
#204=ORIENTED_EDGE('',*,*,#157,.T.);
#205=ORIENTED_EDGE('',*,*,#158,.T.);
#206=ORIENTED_EDGE('',*,*,#152,.F.);
#207=ORIENTED_EDGE('',*,*,#153,.F.);
#208=ORIENTED_EDGE('',*,*,#158,.F.);
#209=ORIENTED_EDGE('',*,*,#154,.T.);
#210=ORIENTED_EDGE('',*,*,#159,.F.);
#211=ORIENTED_EDGE('',*,*,#159,.T.);
#212=ORIENTED_EDGE('',*,*,#160,.T.);
#213=ORIENTED_EDGE('',*,*,#161,.F.);
#214=ORIENTED_EDGE('',*,*,#162,.F.);
#215=ORIENTED_EDGE('',*,*,#160,.F.);
#216=ORIENTED_EDGE('',*,*,#162,.T.);
#217=ORIENTED_EDGE('',*,*,#163,.T.);
#218=ORIENTED_EDGE('',*,*,#164,.T.);
#219=ORIENTED_EDGE('',*,*,#165,.T.);
#220=ORIENTED_EDGE('',*,*,#163,.F.);
#221=ORIENTED_EDGE('',*,*,#161,.T.);
#222=ORIENTED_EDGE('',*,*,#166,.T.);
#223=ORIENTED_EDGE('',*,*,#167,.T.);
#224=ORIENTED_EDGE('',*,*,#168,.F.);
#225=ORIENTED_EDGE('',*,*,#169,.F.);
#226=ORIENTED_EDGE('',*,*,#167,.F.);
#227=ORIENTED_EDGE('',*,*,#170,.T.);
#228=ORIENTED_EDGE('',*,*,#171,.F.);
#229=ORIENTED_EDGE('',*,*,#172,.T.);
#230=ORIENTED_EDGE('',*,*,#168,.T.);
#231=ORIENTED_EDGE('',*,*,#169,.T.);
#232=ORIENTED_EDGE('',*,*,#172,.F.);
#233=ORIENTED_EDGE('',*,*,#171,.T.);
#234=ORIENTED_EDGE('',*,*,#173,.T.);
#235=ORIENTED_EDGE('',*,*,#174,.F.);
#236=ORIENTED_EDGE('',*,*,#173,.F.);
#237=ORIENTED_EDGE('',*,*,#174,.T.);
#238=ORIENTED_EDGE('',*,*,#175,.T.);
#239=ORIENTED_EDGE('',*,*,#176,.F.);
#240=ORIENTED_EDGE('',*,*,#177,.F.);
#241=ORIENTED_EDGE('',*,*,#175,.F.);
#242=ORIENTED_EDGE('',*,*,#156,.F.);
#243=ORIENTED_EDGE('',*,*,#157,.F.);
#244=ORIENTED_EDGE('',*,*,#178,.T.);
#245=ORIENTED_EDGE('',*,*,#176,.T.);
#246=ORIENTED_EDGE('',*,*,#177,.T.);
#247=ORIENTED_EDGE('',*,*,#178,.F.);
#248=ORIENTED_EDGE('',*,*,#166,.F.);
#249=ORIENTED_EDGE('',*,*,#179,.T.);
#250=ORIENTED_EDGE('',*,*,#164,.F.);
#251=ORIENTED_EDGE('',*,*,#165,.F.);
#252=ORIENTED_EDGE('',*,*,#179,.F.);
#253=ORIENTED_EDGE('',*,*,#170,.F.);
#254=CYLINDRICAL_SURFACE('',#278,63.5);
#255=CYLINDRICAL_SURFACE('',#283,54.6999999999998);
#256=CYLINDRICAL_SURFACE('',#294,44.4999999999998);
#257=CYLINDRICAL_SURFACE('',#321,42.8999999999999);
#258=ADVANCED_FACE('',(#38),#254,.T.);
#259=ADVANCED_FACE('',(#39,#32),#35,.T.);
#260=ADVANCED_FACE('',(#40),#255,.F.);
#261=ADVANCED_FACE('',(#41,#33),#36,.T.);
#262=ADVANCED_FACE('',(#42),#24,.T.);
#263=ADVANCED_FACE('',(#43),#19,.T.);
#264=ADVANCED_FACE('',(#44),#256,.T.);
#265=ADVANCED_FACE('',(#45,#34),#37,.T.);
#266=ADVANCED_FACE('',(#46),#20,.F.);
#267=ADVANCED_FACE('',(#47),#25,.F.);
#268=ADVANCED_FACE('',(#48),#26,.T.);
#269=ADVANCED_FACE('',(#49),#21,.F.);
#270=ADVANCED_FACE('',(#50),#22,.T.);
#271=ADVANCED_FACE('',(#51),#23,.T.);
#272=ADVANCED_FACE('',(#52),#27,.F.);
#273=ADVANCED_FACE('',(#53),#257,.F.);
#274=CLOSED_SHELL('',(#258,#259,#260,#261));
#275=CLOSED_SHELL('',(#262,#263,#264,#265,#266,#267,#268,#269,#270,#271,
#272,#273));
#276=AXIS2_PLACEMENT_3D('',#426,#323,#324);
#277=AXIS2_PLACEMENT_3D('',#427,#325,#326);
#278=AXIS2_PLACEMENT_3D('',#428,#327,#328);
#279=AXIS2_PLACEMENT_3D('',#430,#329,#330);
#280=AXIS2_PLACEMENT_3D('',#433,#332,#333);
#281=AXIS2_PLACEMENT_3D('',#434,#334,#335);
#282=AXIS2_PLACEMENT_3D('',#436,#336,#337);
#283=AXIS2_PLACEMENT_3D('',#437,#338,#339);
#284=AXIS2_PLACEMENT_3D('',#440,#341,#342);
#285=AXIS2_PLACEMENT_3D('',#441,#343,#344);
#286=AXIS2_PLACEMENT_3D('',#442,#345,#346);
#287=AXIS2_PLACEMENT_3D('',#445,#347,#348);
#288=AXIS2_PLACEMENT_3D('',#446,#349,#350);
#289=AXIS2_PLACEMENT_3D('',#448,#351,#352);
#290=AXIS2_PLACEMENT_3D('',#450,#353,#354);
#291=AXIS2_PLACEMENT_3D('',#451,#355,#356);
#292=AXIS2_PLACEMENT_3D('',#452,#357,#358);
#293=AXIS2_PLACEMENT_3D('',#454,#359,#360);
#294=AXIS2_PLACEMENT_3D('',#456,#362,#363);
#295=AXIS2_PLACEMENT_3D('',#459,#364,#365);
#296=AXIS2_PLACEMENT_3D('',#460,#366,#367);
#297=AXIS2_PLACEMENT_3D('',#462,#369,#370);
#298=AXIS2_PLACEMENT_3D('',#464,#371,#372);
#299=AXIS2_PLACEMENT_3D('',#465,#373,#374);
#300=AXIS2_PLACEMENT_3D('',#469,#376,#377);
#301=AXIS2_PLACEMENT_3D('',#470,#378,#379);
#302=AXIS2_PLACEMENT_3D('',#471,#380,#381);
#303=AXIS2_PLACEMENT_3D('',#473,#382,#383);
#304=AXIS2_PLACEMENT_3D('',#475,#384,#385);
#305=AXIS2_PLACEMENT_3D('',#476,#386,#387);
#306=AXIS2_PLACEMENT_3D('',#477,#388,#389);
#307=AXIS2_PLACEMENT_3D('',#480,#390,#391);
#308=AXIS2_PLACEMENT_3D('',#482,#392,#393);
#309=AXIS2_PLACEMENT_3D('',#484,#394,#395);
#310=AXIS2_PLACEMENT_3D('',#485,#396,#397);
#311=AXIS2_PLACEMENT_3D('',#486,#398,#399);
#312=AXIS2_PLACEMENT_3D('',#487,#400,#401);
#313=AXIS2_PLACEMENT_3D('',#489,#402,#403);
#314=AXIS2_PLACEMENT_3D('',#491,#405,#406);
#315=AXIS2_PLACEMENT_3D('',#494,#408,#409);
#316=AXIS2_PLACEMENT_3D('',#495,#410,#411);
#317=AXIS2_PLACEMENT_3D('',#499,#413,#414);
#318=AXIS2_PLACEMENT_3D('',#500,#415,#416);
#319=AXIS2_PLACEMENT_3D('',#501,#417,#418);
#320=AXIS2_PLACEMENT_3D('',#502,#419,#420);
#321=AXIS2_PLACEMENT_3D('',#503,#421,#422);
#322=AXIS2_PLACEMENT_3D('',#505,#424,#425);
#323=DIRECTION('axis',(0.,0.,1.));
#324=DIRECTION('refdir',(1.,0.,0.));
#325=DIRECTION('axis',(0.,0.,1.));
#326=DIRECTION('refdir',(1.,0.,0.));
#327=DIRECTION('center_axis',(0.,6.12323399573677E-17,1.));
#328=DIRECTION('ref_axis',(1.,0.,0.));
#329=DIRECTION('center_axis',(0.,6.12323399573677E-17,1.));
#330=DIRECTION('ref_axis',(1.,0.,0.));
#331=DIRECTION('',(0.,-6.12323399573677E-17,-1.));
#332=DIRECTION('center_axis',(0.,6.12323399573677E-17,1.));
#333=DIRECTION('ref_axis',(1.,0.,0.));
#334=DIRECTION('center_axis',(0.,6.12323399573677E-17,1.));
#335=DIRECTION('ref_axis',(0.,-1.,6.12323399573677E-17));
#336=DIRECTION('center_axis',(0.,6.12323399573677E-17,1.));
#337=DIRECTION('ref_axis',(1.,0.,0.));
#338=DIRECTION('center_axis',(0.,6.12323399573677E-17,1.));
#339=DIRECTION('ref_axis',(1.,0.,0.));
#340=DIRECTION('',(0.,-6.12323399573677E-17,-1.));
#341=DIRECTION('center_axis',(0.,6.12323399573677E-17,1.));
#342=DIRECTION('ref_axis',(1.,0.,0.));
#343=DIRECTION('center_axis',(0.,-6.12323399573677E-17,-1.));
#344=DIRECTION('ref_axis',(0.,1.,-6.12323399573677E-17));
#345=DIRECTION('center_axis',(0.,-6.12323399573677E-17,-1.));
#346=DIRECTION('ref_axis',(0.,1.,0.));
#347=DIRECTION('center_axis',(0.,6.12323399573677E-17,1.));
#348=DIRECTION('ref_axis',(-1.,-6.39214843210014E-16,3.9140620585231E-32));
#349=DIRECTION('center_axis',(0.,6.12323399573677E-17,1.));
#350=DIRECTION('ref_axis',(-1.,-6.39214843210014E-16,3.9140620585231E-32));
#351=DIRECTION('center_axis',(-1.,0.,0.));
#352=DIRECTION('ref_axis',(0.,-1.,6.12323399573677E-17));
#353=DIRECTION('center_axis',(0.,-6.12323399573677E-17,-1.));
#354=DIRECTION('ref_axis',(-1.,-6.38690099559646E-16,3.91084893036412E-32));
#355=DIRECTION('center_axis',(0.,-6.12323399573677E-17,-1.));
#356=DIRECTION('ref_axis',(-1.,-6.38690099559646E-16,3.91084893036412E-32));
#357=DIRECTION('center_axis',(-3.39363694691391E-16,6.12323399573677E-17,
1.));
#358=DIRECTION('ref_axis',(1.,3.51581368487278E-32,5.74175948088972E-16));
#359=DIRECTION('center_axis',(3.39363694691391E-16,-6.12323399573677E-17,
-1.));
#360=DIRECTION('ref_axis',(1.,2.07800331225316E-32,3.39363694691391E-16));
#361=DIRECTION('',(-0.0871557427476642,7.16728325556046E-17,0.996194698091745));
#362=DIRECTION('center_axis',(0.,-6.12323399573677E-17,-1.));
#363=DIRECTION('ref_axis',(1.,0.,0.));
#364=DIRECTION('center_axis',(0.,-6.12323399573677E-17,-1.));
#365=DIRECTION('ref_axis',(1.,0.,0.));
#366=DIRECTION('center_axis',(0.,-6.12323399573677E-17,-1.));
#367=DIRECTION('ref_axis',(1.,0.,0.));
#368=DIRECTION('',(0.,-6.12323399573677E-17,-1.));
#369=DIRECTION('center_axis',(3.39363694691391E-16,-6.12323399573677E-17,
-1.));
#370=DIRECTION('ref_axis',(0.,1.,-6.12323399573677E-17));
#371=DIRECTION('center_axis',(3.39363694691391E-16,-6.12323399573677E-17,
-1.));
#372=DIRECTION('ref_axis',(1.,2.07800331225316E-32,3.39363694691391E-16));
#373=DIRECTION('center_axis',(-3.39363694691391E-16,6.12323399573677E-17,
1.));
#374=DIRECTION('ref_axis',(1.,3.51581368487278E-32,5.74175948088972E-16));
#375=DIRECTION('',(-0.0871557427476607,7.16728325556042E-17,0.996194698091745));
#376=DIRECTION('center_axis',(0.,-6.12323399573677E-17,-1.));
#377=DIRECTION('ref_axis',(-1.,-1.84046913587996E-32,1.12696231809244E-48));
#378=DIRECTION('center_axis',(0.,-6.12323399573677E-17,-1.));
#379=DIRECTION('ref_axis',(-1.,-1.84046913587996E-32,1.12696231809244E-48));
#380=DIRECTION('center_axis',(3.39363694691391E-16,-6.12323399573677E-17,
-1.));
#381=DIRECTION('ref_axis',(0.,1.,0.));
#382=DIRECTION('center_axis',(-1.,-2.07800331225316E-32,-3.39363694691391E-16));
#383=DIRECTION('ref_axis',(0.,-1.,6.12323399573677E-17));
#384=DIRECTION('center_axis',(-3.39363694691391E-16,6.12323399573677E-17,
1.));
#385=DIRECTION('ref_axis',(-1.,-1.22464679914735E-16,-3.39019152041716E-16));
#386=DIRECTION('center_axis',(-3.39363694691391E-16,6.12323399573677E-17,
1.));
#387=DIRECTION('ref_axis',(-1.,-1.22464679914735E-16,-3.39019152041716E-16));
#388=DIRECTION('center_axis',(0.,6.12323399573677E-17,1.));
#389=DIRECTION('ref_axis',(0.,1.,0.));
#390=DIRECTION('center_axis',(0.,-6.12323399573677E-17,-1.));
#391=DIRECTION('ref_axis',(1.,0.,0.));
#392=DIRECTION('center_axis',(1.,0.,0.));
#393=DIRECTION('ref_axis',(0.,-1.,6.12323399573677E-17));
#394=DIRECTION('center_axis',(0.,-6.12323399573677E-17,-1.));
#395=DIRECTION('ref_axis',(1.,0.,0.));
#396=DIRECTION('center_axis',(0.,-6.12323399573677E-17,-1.));
#397=DIRECTION('ref_axis',(1.,0.,0.));
#398=DIRECTION('center_axis',(0.,-6.12323399573677E-17,-1.));
#399=DIRECTION('ref_axis',(1.,0.,0.));
#400=DIRECTION('center_axis',(0.,6.12323399573677E-17,1.));
#401=DIRECTION('ref_axis',(1.,0.,0.));
#402=DIRECTION('center_axis',(0.,-6.12323399573677E-17,-1.));
#403=DIRECTION('ref_axis',(1.,0.,0.));
#404=DIRECTION('',(0.558781599327433,-1.1921189867189E-16,-0.829314852304646));
#405=DIRECTION('center_axis',(0.,-6.12323399573677E-17,-1.));
#406=DIRECTION('ref_axis',(1.,0.,0.));
#407=DIRECTION('',(-0.829314852304659,6.73462730840883E-17,-0.558781599327413));
#408=DIRECTION('center_axis',(0.,-6.12323399573677E-17,-1.));
#409=DIRECTION('ref_axis',(1.,0.,0.));
#410=DIRECTION('center_axis',(0.,6.12323399573677E-17,1.));
#411=DIRECTION('ref_axis',(1.,0.,0.));
#412=DIRECTION('',(0.558781599327427,-1.1921189867189E-16,-0.829314852304649));
#413=DIRECTION('center_axis',(0.,-6.12323399573677E-17,-1.));
#414=DIRECTION('ref_axis',(1.,0.,0.));
#415=DIRECTION('center_axis',(0.,-6.12323399573677E-17,-1.));
#416=DIRECTION('ref_axis',(1.,0.,0.));
#417=DIRECTION('center_axis',(0.,6.12323399573677E-17,1.));
#418=DIRECTION('ref_axis',(0.,1.,0.));
#419=DIRECTION('center_axis',(1.,0.,0.));
#420=DIRECTION('ref_axis',(0.,-1.,6.12323399573677E-17));
#421=DIRECTION('center_axis',(0.,-6.12323399573677E-17,-1.));
#422=DIRECTION('ref_axis',(1.,0.,0.));
#423=DIRECTION('',(0.,-6.12323399573677E-17,-1.));
#424=DIRECTION('',(0.,0.,1.));
#425=DIRECTION('',(1.,0.,0.));
#426=CARTESIAN_POINT('',(0.,0.,0.));
#427=CARTESIAN_POINT('',(0.,0.,0.));
#428=CARTESIAN_POINT('Origin',(129.797305419129,97.1939330370279,-100.035068255088));
#429=CARTESIAN_POINT('',(66.2973054191289,97.1939330370279,-50.0350682550881));
#430=CARTESIAN_POINT('Origin',(129.797305419129,97.193933037028,-50.0350682550881));
#431=CARTESIAN_POINT('',(66.2973054191289,97.1939330370279,-150.035068255088));
#432=CARTESIAN_POINT('',(66.2973054191289,97.1939330370279,-100.035068255088));
#433=CARTESIAN_POINT('Origin',(129.797305419129,97.1939330370279,-150.035068255088));
#434=CARTESIAN_POINT('Origin',(184.497305419129,97.193933037028,-50.0350682550881));
#435=CARTESIAN_POINT('',(75.097305419129,97.1939330370279,-50.0350682550881));
#436=CARTESIAN_POINT('Origin',(129.797305419129,97.193933037028,-50.0350682550881));
#437=CARTESIAN_POINT('Origin',(129.797305419129,97.1939330370279,-100.035068255088));
#438=CARTESIAN_POINT('',(75.097305419129,97.1939330370279,-150.035068255088));
#439=CARTESIAN_POINT('',(75.097305419129,97.1939330370279,-100.035068255088));
#440=CARTESIAN_POINT('Origin',(129.797305419129,97.1939330370279,-150.035068255088));
#441=CARTESIAN_POINT('Origin',(193.297305419129,97.1939330370279,-150.035068255088));
#442=CARTESIAN_POINT('Origin',(129.797305419129,97.193933037028,-259.685780711818));
#443=CARTESIAN_POINT('',(129.797305419129,52.7304639353475,-260.522475842196));
#444=CARTESIAN_POINT('',(85.3338363174483,97.193933037028,-260.522475842196));
#445=CARTESIAN_POINT('Origin',(129.797305419129,97.193933037028,-260.522475842196));
#446=CARTESIAN_POINT('Origin',(129.797305419129,97.193933037028,-260.522475842196));
#447=CARTESIAN_POINT('',(129.797305419129,52.6939330370282,-259.685780711818));
#448=CARTESIAN_POINT('Origin',(129.797305419129,62.2939330370282,-259.685780711818));
#449=CARTESIAN_POINT('',(85.2973054191291,97.193933037028,-259.685780711818));
#450=CARTESIAN_POINT('Origin',(129.797305419129,97.193933037028,-259.685780711818));
#451=CARTESIAN_POINT('Origin',(129.797305419129,97.193933037028,-259.685780711818));
#452=CARTESIAN_POINT('Origin',(129.797305419129,97.193933037028,-265.069997009415));
#453=CARTESIAN_POINT('',(86.1660803143192,97.193933037028,-270.035068255088));
#454=CARTESIAN_POINT('Origin',(129.797305419129,97.193933037028,-270.035068255088));
#455=CARTESIAN_POINT('',(85.7316928667242,97.193933037028,-265.069997009415));
#456=CARTESIAN_POINT('Origin',(129.797305419129,97.193933037028,-182.604449957791));
#457=CARTESIAN_POINT('',(85.2973054191291,97.193933037028,-170.480431325063));
#458=CARTESIAN_POINT('',(129.797305419129,52.6939330370282,-170.480431325063));
#459=CARTESIAN_POINT('Origin',(129.797305419129,97.193933037028,-170.480431325063));
#460=CARTESIAN_POINT('Origin',(129.797305419129,97.193933037028,-170.480431325063));
#461=CARTESIAN_POINT('',(85.2973054191291,97.193933037028,-182.604449957791));
#462=CARTESIAN_POINT('Origin',(171.822418783869,97.193933037028,-270.035068255088));
#463=CARTESIAN_POINT('',(87.7721920543885,97.193933037028,-270.035068255088));
#464=CARTESIAN_POINT('Origin',(129.797305419129,97.193933037028,-270.035068255088));
#465=CARTESIAN_POINT('Origin',(129.797305419129,97.193933037028,-265.035068255088));
#466=CARTESIAN_POINT('',(86.9353584382117,97.193933037028,-260.470016253479));
#467=CARTESIAN_POINT('',(87.3347487367588,97.193933037028,-265.035068255088));
#468=CARTESIAN_POINT('',(129.797305419129,54.3319860561108,-260.470016253479));
#469=CARTESIAN_POINT('Origin',(129.797305419129,97.193933037028,-260.470016253479));
#470=CARTESIAN_POINT('Origin',(129.797305419129,97.193933037028,-260.470016253479));
#471=CARTESIAN_POINT('Origin',(129.797305419129,97.193933037028,-259.598458826002));
#472=CARTESIAN_POINT('',(129.797305419129,54.2939330370282,-259.598458826002));
#473=CARTESIAN_POINT('Origin',(129.797305419129,64.2939330370282,-259.598458826002));
#474=CARTESIAN_POINT('',(86.897305419129,97.193933037028,-259.598458826002));
#475=CARTESIAN_POINT('Origin',(129.797305419129,97.193933037028,-259.598458826002));
#476=CARTESIAN_POINT('Origin',(129.797305419129,97.193933037028,-259.598458826002));
#477=CARTESIAN_POINT('Origin',(129.797305419129,97.193933037028,-170.480431325062));
#478=CARTESIAN_POINT('',(86.897305419129,97.193933037028,-170.480431325063));
#479=CARTESIAN_POINT('',(129.797305419129,54.2939330370282,-170.480431325063));
#480=CARTESIAN_POINT('Origin',(129.797305419129,97.193933037028,-170.480431325063));
#481=CARTESIAN_POINT('',(129.797305419129,52.6553556191529,-165.116127971519));
#482=CARTESIAN_POINT('Origin',(129.797305419129,44.6939330370287,-170.480431325062));
#483=CARTESIAN_POINT('',(85.2587280012538,97.193933037028,-165.116127971519));
#484=CARTESIAN_POINT('Origin',(129.797305419129,97.193933037028,-165.116127971519));
#485=CARTESIAN_POINT('Origin',(129.797305419129,97.193933037028,-165.116127971519));
#486=CARTESIAN_POINT('Origin',(129.797305419129,97.193933037028,-170.480431325063));
#487=CARTESIAN_POINT('Origin',(129.797305419129,97.193933037028,-157.575598113304));
#488=CARTESIAN_POINT('',(75.097305419129,97.193933037028,-150.035068255088));
#489=CARTESIAN_POINT('Origin',(129.797305419129,97.193933037028,-150.035068255088));
#490=CARTESIAN_POINT('',(80.1780167101914,97.193933037028,-157.575598113304));
#491=CARTESIAN_POINT('Origin',(129.797305419129,97.193933037028,-150.48209353455));
#492=CARTESIAN_POINT('',(73.7704016554416,97.193933037028,-150.929118814012));
#493=CARTESIAN_POINT('',(74.4338535372854,97.193933037028,-150.48209353455));
#494=CARTESIAN_POINT('Origin',(129.797305419129,97.193933037028,-150.929118814012));
#495=CARTESIAN_POINT('Origin',(129.797305419129,97.193933037028,-158.469648672228));
#496=CARTESIAN_POINT('',(83.9318242375662,97.193933037028,-166.010178530443));
#497=CARTESIAN_POINT('',(78.8511129465039,97.193933037028,-158.469648672228));
#498=CARTESIAN_POINT('',(129.797305419129,51.3284518554653,-166.010178530443));
#499=CARTESIAN_POINT('Origin',(129.797305419129,97.193933037028,-166.010178530443));
#500=CARTESIAN_POINT('Origin',(129.797305419129,97.193933037028,-166.010178530443));
#501=CARTESIAN_POINT('Origin',(129.797305419129,97.193933037028,-170.480431325063));
#502=CARTESIAN_POINT('Origin',(129.797305419129,44.6939330370271,-170.480431325063));
#503=CARTESIAN_POINT('Origin',(129.797305419129,97.193933037028,-182.604449957791));
#504=CARTESIAN_POINT('',(86.897305419129,97.193933037028,-182.604449957791));
#505=CARTESIAN_POINT('',(0.,0.,0.));
#506=UNCERTAINTY_MEASURE_WITH_UNIT(LENGTH_MEASURE(0.001),#512,
'DISTANCE_ACCURACY_VALUE',
'Maximum model space distance between geometric entities at asserted c
onnectivities');
#507=UNCERTAINTY_MEASURE_WITH_UNIT(LENGTH_MEASURE(0.001),#512,
'DISTANCE_ACCURACY_VALUE',
'Maximum model space distance between geometric entities at asserted c
onnectivities');
#508=UNCERTAINTY_MEASURE_WITH_UNIT(LENGTH_MEASURE(0.001),#512,
'DISTANCE_ACCURACY_VALUE',
'Maximum model space distance between geometric entities at asserted c
onnectivities');
#509=(
GEOMETRIC_REPRESENTATION_CONTEXT(3)
GLOBAL_UNCERTAINTY_ASSIGNED_CONTEXT((#506))
GLOBAL_UNIT_ASSIGNED_CONTEXT((#512,#513,#514))
REPRESENTATION_CONTEXT('','3D')
);
#510=(
GEOMETRIC_REPRESENTATION_CONTEXT(3)
GLOBAL_UNCERTAINTY_ASSIGNED_CONTEXT((#507))
GLOBAL_UNIT_ASSIGNED_CONTEXT((#512,#513,#514))
REPRESENTATION_CONTEXT('','3D')
);
#511=(
GEOMETRIC_REPRESENTATION_CONTEXT(3)
GLOBAL_UNCERTAINTY_ASSIGNED_CONTEXT((#508))
GLOBAL_UNIT_ASSIGNED_CONTEXT((#512,#513,#514))
REPRESENTATION_CONTEXT('','3D')
);
#512=(
LENGTH_UNIT()
NAMED_UNIT(*)
SI_UNIT(.CENTI.,.METRE.)
);
#513=(
NAMED_UNIT(*)
PLANE_ANGLE_UNIT()
SI_UNIT($,.RADIAN.)
);
#514=(
NAMED_UNIT(*)
SI_UNIT($,.STERADIAN.)
SOLID_ANGLE_UNIT()
);
#515=SHAPE_DEFINITION_REPRESENTATION(#517,#520);
#516=SHAPE_DEFINITION_REPRESENTATION(#518,#521);
#517=PRODUCT_DEFINITION_SHAPE('',$,#523);
#518=PRODUCT_DEFINITION_SHAPE('',$,#524);
#519=PRODUCT_DEFINITION_SHAPE($,$,#18);
#520=SHAPE_REPRESENTATION('',(#276,#322),#509);
#521=SHAPE_REPRESENTATION('',(#277),#510);
#522=PRODUCT_DEFINITION_CONTEXT('part definition',#530,'design');
#523=PRODUCT_DEFINITION('Product','Product',#525,#522);
#524=PRODUCT_DEFINITION('*S0','*S0',#526,#522);
#525=PRODUCT_DEFINITION_FORMATION('',$,#532);
#526=PRODUCT_DEFINITION_FORMATION('',$,#533);
#527=PRODUCT_RELATED_PRODUCT_CATEGORY('Product','Product',(#532));
#528=PRODUCT_RELATED_PRODUCT_CATEGORY('*S0','*S0',(#533));
#529=APPLICATION_PROTOCOL_DEFINITION('international standard',
'automotive_design',2009,#530);
#530=APPLICATION_CONTEXT(
'Core Data for Automotive Mechanical Design Process');
#531=PRODUCT_CONTEXT('part definition',#530,'mechanical');
#532=PRODUCT('Product','Product',$,(#531));
#533=PRODUCT('*S0','*S0',$,(#531));
#534=PRESENTATION_STYLE_ASSIGNMENT((#535));
#535=SURFACE_STYLE_USAGE(.BOTH.,#536);
#536=SURFACE_SIDE_STYLE('',(#537));
#537=SURFACE_STYLE_FILL_AREA(#538);
#538=FILL_AREA_STYLE('',(#539));
#539=FILL_AREA_STYLE_COLOUR('',#540);
#540=COLOUR_RGB('',0.749019607843137,0.749019607843137,0.749019607843137);
ENDSEC;
END-ISO-10303-21;
