ISO-10303-21;
HEADER;
/* Generated by software containing ST-Developer
 * from STEP Tools, Inc. (www.steptools.com) 
 */

FILE_DESCRIPTION(
/* description */ (''),
/* implementation_level */ '2;1');

FILE_NAME(
/* name */ '08225.080C_3D.stp',
/* time_stamp */ '2024-12-11T14:20:21+01:00',
/* author */ ('CAD'),
/* organization */ (''),
/* preprocessor_version */ 'ST-DEVELOPER v20',
/* originating_system */ 'AutoCAD Mechanical',
/* authorisation */ '');

FILE_SCHEMA (('AUTOMOTIVE_DESIGN { 1 0 10303 214 3 1 1 }'));
ENDSEC;

DATA;
#10=MECHANICAL_DESIGN_GEOMETRIC_PRESENTATION_REPRESENTATION('',(#28,#29),
#511);
#11=PRESENTATION_LAYER_ASSIGNMENT('5','H\X\DCLSE',(#30));
#12=PRESENTATION_LAYER_ASSIGNMENT('4','ROHR',(#31));
#13=SHAPE_REPRESENTATION_RELATIONSHIP('SRR','None',#520,#14);
#14=ADVANCED_BREP_SHAPE_REPRESENTATION('',(#30,#31),#509);
#15=ITEM_DEFINED_TRANSFORMATION($,$,#277,#322);
#16=(
REPRESENTATION_RELATIONSHIP($,$,#521,#520)
REPRESENTATION_RELATIONSHIP_WITH_TRANSFORMATION(#15)
SHAPE_REPRESENTATION_RELATIONSHIP()
);
#17=CONTEXT_DEPENDENT_SHAPE_REPRESENTATION(#16,#519);
#18=NEXT_ASSEMBLY_USAGE_OCCURRENCE('B3C','B3C','B3C',#523,#524,'B3C');
#19=CONICAL_SURFACE('',#292,44.1189813408039,0.081700483942341);
#20=CONICAL_SURFACE('',#303,42.6178479801592,0.0819424216580703);
#21=CONICAL_SURFACE('',#309,49.2446584092049,1.06106959615229);
#22=CONICAL_SURFACE('',#312,46.3988300750347,0.509726730642588);
#23=CONICAL_SURFACE('',#321,47.7081468934448,0.509726730642577);
#24=TOROIDAL_SURFACE('',#286,35.,9.5);
#25=TOROIDAL_SURFACE('',#297,33.,10.);
#26=TOROIDAL_SURFACE('',#315,52.4999999999992,9.4999999999992);
#27=TOROIDAL_SURFACE('',#317,52.5000000000016,8.00000000000161);
#28=STYLED_ITEM('',(#534),#30);
#29=STYLED_ITEM('',(#534),#31);
#30=MANIFOLD_SOLID_BREP('1F73',#274);
#31=MANIFOLD_SOLID_BREP('1F77',#275);
#32=FACE_BOUND('',#56,.T.);
#33=FACE_BOUND('',#59,.T.);
#34=FACE_BOUND('',#67,.T.);
#35=PLANE('',#281);
#36=PLANE('',#285);
#37=PLANE('',#308);
#38=FACE_OUTER_BOUND('',#54,.T.);
#39=FACE_OUTER_BOUND('',#55,.T.);
#40=FACE_OUTER_BOUND('',#57,.T.);
#41=FACE_OUTER_BOUND('',#58,.T.);
#42=FACE_OUTER_BOUND('',#60,.T.);
#43=FACE_OUTER_BOUND('',#61,.T.);
#44=FACE_OUTER_BOUND('',#62,.T.);
#45=FACE_OUTER_BOUND('',#63,.T.);
#46=FACE_OUTER_BOUND('',#64,.T.);
#47=FACE_OUTER_BOUND('',#65,.T.);
#48=FACE_OUTER_BOUND('',#66,.T.);
#49=FACE_OUTER_BOUND('',#68,.T.);
#50=FACE_OUTER_BOUND('',#69,.T.);
#51=FACE_OUTER_BOUND('',#70,.T.);
#52=FACE_OUTER_BOUND('',#71,.T.);
#53=FACE_OUTER_BOUND('',#72,.T.);
#54=EDGE_LOOP('',(#180,#181,#182,#183));
#55=EDGE_LOOP('',(#184));
#56=EDGE_LOOP('',(#185));
#57=EDGE_LOOP('',(#186,#187,#188,#189));
#58=EDGE_LOOP('',(#190));
#59=EDGE_LOOP('',(#191));
#60=EDGE_LOOP('',(#192,#193,#194,#195,#196,#197));
#61=EDGE_LOOP('',(#198,#199,#200,#201,#202));
#62=EDGE_LOOP('',(#203,#204,#205,#206,#207,#208));
#63=EDGE_LOOP('',(#209,#210,#211,#212,#213,#214));
#64=EDGE_LOOP('',(#215,#216,#217,#218,#219));
#65=EDGE_LOOP('',(#220,#221,#222,#223,#224,#225));
#66=EDGE_LOOP('',(#226));
#67=EDGE_LOOP('',(#227));
#68=EDGE_LOOP('',(#228,#229,#230,#231));
#69=EDGE_LOOP('',(#232,#233,#234,#235,#236));
#70=EDGE_LOOP('',(#237,#238,#239,#240,#241,#242));
#71=EDGE_LOOP('',(#243,#244,#245,#246,#247,#248));
#72=EDGE_LOOP('',(#249,#250,#251,#252,#253));
#73=LINE('',#432,#82);
#74=LINE('',#439,#83);
#75=LINE('',#455,#84);
#76=LINE('',#461,#85);
#77=LINE('',#475,#86);
#78=LINE('',#480,#87);
#79=LINE('',#487,#88);
#80=LINE('',#491,#89);
#81=LINE('',#504,#90);
#82=VECTOR('',#331,57.1499999999999);
#83=VECTOR('',#340,48.5899999999999);
#84=VECTOR('',#361,44.1189813408039);
#85=VECTOR('',#368,44.5);
#86=VECTOR('',#385,42.6178479801592);
#87=VECTOR('',#390,43.);
#88=VECTOR('',#399,49.2446584092049);
#89=VECTOR('',#404,46.3988300750347);
#90=VECTOR('',#423,47.7081468934448);
#91=CIRCLE('',#279,57.1499999999999);
#92=CIRCLE('',#280,57.1499999999999);
#93=CIRCLE('',#282,48.5899999999999);
#94=CIRCLE('',#284,48.5899999999999);
#95=CIRCLE('',#287,44.4683115294016);
#96=CIRCLE('',#288,9.5);
#97=CIRCLE('',#289,44.5);
#98=CIRCLE('',#290,44.5);
#99=CIRCLE('',#291,44.4683115294016);
#100=CIRCLE('',#293,43.7379626816077);
#101=CIRCLE('',#295,44.5);
#102=CIRCLE('',#296,44.5);
#103=CIRCLE('',#298,43.);
#104=CIRCLE('',#299,10.);
#105=CIRCLE('',#300,42.9664459790109);
#106=CIRCLE('',#301,42.9664459790109);
#107=CIRCLE('',#302,43.);
#108=CIRCLE('',#304,42.2356959603186);
#109=CIRCLE('',#306,43.);
#110=CIRCLE('',#307,43.);
#111=CIRCLE('',#310,48.5899999999999);
#112=CIRCLE('',#311,49.8993168184099);
#113=CIRCLE('',#313,44.2076601500694);
#114=CIRCLE('',#314,44.2076601500694);
#115=CIRCLE('',#316,9.4999999999992);
#116=CIRCLE('',#318,8.00000000000161);
#117=CIRCLE('',#319,45.5169769684795);
#118=CIRCLE('',#320,45.5169769684795);
#119=VERTEX_POINT('',#429);
#120=VERTEX_POINT('',#431);
#121=VERTEX_POINT('',#435);
#122=VERTEX_POINT('',#438);
#123=VERTEX_POINT('',#443);
#124=VERTEX_POINT('',#444);
#125=VERTEX_POINT('',#446);
#126=VERTEX_POINT('',#448);
#127=VERTEX_POINT('',#453);
#128=VERTEX_POINT('',#457);
#129=VERTEX_POINT('',#458);
#130=VERTEX_POINT('',#463);
#131=VERTEX_POINT('',#464);
#132=VERTEX_POINT('',#466);
#133=VERTEX_POINT('',#468);
#134=VERTEX_POINT('',#473);
#135=VERTEX_POINT('',#477);
#136=VERTEX_POINT('',#478);
#137=VERTEX_POINT('',#484);
#138=VERTEX_POINT('',#486);
#139=VERTEX_POINT('',#490);
#140=VERTEX_POINT('',#492);
#141=VERTEX_POINT('',#498);
#142=VERTEX_POINT('',#500);
#143=EDGE_CURVE('',#119,#119,#91,.T.);
#144=EDGE_CURVE('',#119,#120,#73,.T.);
#145=EDGE_CURVE('',#120,#120,#92,.T.);
#146=EDGE_CURVE('',#121,#121,#93,.T.);
#147=EDGE_CURVE('',#121,#122,#74,.T.);
#148=EDGE_CURVE('',#122,#122,#94,.T.);
#149=EDGE_CURVE('',#123,#124,#95,.T.);
#150=EDGE_CURVE('',#124,#125,#96,.T.);
#151=EDGE_CURVE('',#125,#126,#97,.T.);
#152=EDGE_CURVE('',#126,#125,#98,.T.);
#153=EDGE_CURVE('',#124,#123,#99,.T.);
#154=EDGE_CURVE('',#127,#127,#100,.T.);
#155=EDGE_CURVE('',#127,#123,#75,.T.);
#156=EDGE_CURVE('',#128,#129,#101,.T.);
#157=EDGE_CURVE('',#129,#128,#102,.T.);
#158=EDGE_CURVE('',#128,#126,#76,.T.);
#159=EDGE_CURVE('',#130,#131,#103,.T.);
#160=EDGE_CURVE('',#131,#132,#104,.T.);
#161=EDGE_CURVE('',#132,#133,#105,.T.);
#162=EDGE_CURVE('',#133,#132,#106,.T.);
#163=EDGE_CURVE('',#131,#130,#107,.T.);
#164=EDGE_CURVE('',#134,#134,#108,.T.);
#165=EDGE_CURVE('',#134,#133,#77,.T.);
#166=EDGE_CURVE('',#135,#136,#109,.T.);
#167=EDGE_CURVE('',#135,#130,#78,.T.);
#168=EDGE_CURVE('',#136,#135,#110,.T.);
#169=EDGE_CURVE('',#137,#137,#111,.T.);
#170=EDGE_CURVE('',#137,#138,#79,.T.);
#171=EDGE_CURVE('',#138,#138,#112,.T.);
#172=EDGE_CURVE('',#137,#139,#80,.T.);
#173=EDGE_CURVE('',#139,#140,#113,.T.);
#174=EDGE_CURVE('',#140,#139,#114,.T.);
#175=EDGE_CURVE('',#136,#140,#115,.T.);
#176=EDGE_CURVE('',#129,#141,#116,.T.);
#177=EDGE_CURVE('',#141,#142,#117,.T.);
#178=EDGE_CURVE('',#142,#141,#118,.T.);
#179=EDGE_CURVE('',#138,#142,#81,.T.);
#180=ORIENTED_EDGE('',*,*,#143,.F.);
#181=ORIENTED_EDGE('',*,*,#144,.T.);
#182=ORIENTED_EDGE('',*,*,#145,.T.);
#183=ORIENTED_EDGE('',*,*,#144,.F.);
#184=ORIENTED_EDGE('',*,*,#143,.T.);
#185=ORIENTED_EDGE('',*,*,#146,.F.);
#186=ORIENTED_EDGE('',*,*,#146,.T.);
#187=ORIENTED_EDGE('',*,*,#147,.T.);
#188=ORIENTED_EDGE('',*,*,#148,.F.);
#189=ORIENTED_EDGE('',*,*,#147,.F.);
#190=ORIENTED_EDGE('',*,*,#145,.F.);
#191=ORIENTED_EDGE('',*,*,#148,.T.);
#192=ORIENTED_EDGE('',*,*,#149,.T.);
#193=ORIENTED_EDGE('',*,*,#150,.T.);
#194=ORIENTED_EDGE('',*,*,#151,.T.);
#195=ORIENTED_EDGE('',*,*,#152,.T.);
#196=ORIENTED_EDGE('',*,*,#150,.F.);
#197=ORIENTED_EDGE('',*,*,#153,.T.);
#198=ORIENTED_EDGE('',*,*,#154,.F.);
#199=ORIENTED_EDGE('',*,*,#155,.T.);
#200=ORIENTED_EDGE('',*,*,#153,.F.);
#201=ORIENTED_EDGE('',*,*,#149,.F.);
#202=ORIENTED_EDGE('',*,*,#155,.F.);
#203=ORIENTED_EDGE('',*,*,#156,.T.);
#204=ORIENTED_EDGE('',*,*,#157,.T.);
#205=ORIENTED_EDGE('',*,*,#158,.T.);
#206=ORIENTED_EDGE('',*,*,#151,.F.);
#207=ORIENTED_EDGE('',*,*,#152,.F.);
#208=ORIENTED_EDGE('',*,*,#158,.F.);
#209=ORIENTED_EDGE('',*,*,#159,.T.);
#210=ORIENTED_EDGE('',*,*,#160,.T.);
#211=ORIENTED_EDGE('',*,*,#161,.T.);
#212=ORIENTED_EDGE('',*,*,#162,.T.);
#213=ORIENTED_EDGE('',*,*,#160,.F.);
#214=ORIENTED_EDGE('',*,*,#163,.T.);
#215=ORIENTED_EDGE('',*,*,#164,.T.);
#216=ORIENTED_EDGE('',*,*,#165,.T.);
#217=ORIENTED_EDGE('',*,*,#161,.F.);
#218=ORIENTED_EDGE('',*,*,#162,.F.);
#219=ORIENTED_EDGE('',*,*,#165,.F.);
#220=ORIENTED_EDGE('',*,*,#166,.F.);
#221=ORIENTED_EDGE('',*,*,#167,.T.);
#222=ORIENTED_EDGE('',*,*,#163,.F.);
#223=ORIENTED_EDGE('',*,*,#159,.F.);
#224=ORIENTED_EDGE('',*,*,#167,.F.);
#225=ORIENTED_EDGE('',*,*,#168,.F.);
#226=ORIENTED_EDGE('',*,*,#154,.T.);
#227=ORIENTED_EDGE('',*,*,#164,.F.);
#228=ORIENTED_EDGE('',*,*,#169,.T.);
#229=ORIENTED_EDGE('',*,*,#170,.T.);
#230=ORIENTED_EDGE('',*,*,#171,.F.);
#231=ORIENTED_EDGE('',*,*,#170,.F.);
#232=ORIENTED_EDGE('',*,*,#169,.F.);
#233=ORIENTED_EDGE('',*,*,#172,.T.);
#234=ORIENTED_EDGE('',*,*,#173,.T.);
#235=ORIENTED_EDGE('',*,*,#174,.T.);
#236=ORIENTED_EDGE('',*,*,#172,.F.);
#237=ORIENTED_EDGE('',*,*,#166,.T.);
#238=ORIENTED_EDGE('',*,*,#175,.T.);
#239=ORIENTED_EDGE('',*,*,#173,.F.);
#240=ORIENTED_EDGE('',*,*,#174,.F.);
#241=ORIENTED_EDGE('',*,*,#175,.F.);
#242=ORIENTED_EDGE('',*,*,#168,.T.);
#243=ORIENTED_EDGE('',*,*,#156,.F.);
#244=ORIENTED_EDGE('',*,*,#157,.F.);
#245=ORIENTED_EDGE('',*,*,#176,.T.);
#246=ORIENTED_EDGE('',*,*,#177,.T.);
#247=ORIENTED_EDGE('',*,*,#178,.T.);
#248=ORIENTED_EDGE('',*,*,#176,.F.);
#249=ORIENTED_EDGE('',*,*,#171,.T.);
#250=ORIENTED_EDGE('',*,*,#179,.T.);
#251=ORIENTED_EDGE('',*,*,#177,.F.);
#252=ORIENTED_EDGE('',*,*,#178,.F.);
#253=ORIENTED_EDGE('',*,*,#179,.F.);
#254=CYLINDRICAL_SURFACE('',#278,57.1499999999999);
#255=CYLINDRICAL_SURFACE('',#283,48.5899999999999);
#256=CYLINDRICAL_SURFACE('',#294,44.5);
#257=CYLINDRICAL_SURFACE('',#305,43.);
#258=ADVANCED_FACE('',(#38),#254,.T.);
#259=ADVANCED_FACE('',(#39,#32),#35,.T.);
#260=ADVANCED_FACE('',(#40),#255,.F.);
#261=ADVANCED_FACE('',(#41,#33),#36,.T.);
#262=ADVANCED_FACE('',(#42),#24,.T.);
#263=ADVANCED_FACE('',(#43),#19,.T.);
#264=ADVANCED_FACE('',(#44),#256,.T.);
#265=ADVANCED_FACE('',(#45),#25,.F.);
#266=ADVANCED_FACE('',(#46),#20,.F.);
#267=ADVANCED_FACE('',(#47),#257,.F.);
#268=ADVANCED_FACE('',(#48,#34),#37,.T.);
#269=ADVANCED_FACE('',(#49),#21,.T.);
#270=ADVANCED_FACE('',(#50),#22,.F.);
#271=ADVANCED_FACE('',(#51),#26,.T.);
#272=ADVANCED_FACE('',(#52),#27,.F.);
#273=ADVANCED_FACE('',(#53),#23,.T.);
#274=CLOSED_SHELL('',(#258,#259,#260,#261));
#275=CLOSED_SHELL('',(#262,#263,#264,#265,#266,#267,#268,#269,#270,#271,
#272,#273));
#276=AXIS2_PLACEMENT_3D('',#426,#323,#324);
#277=AXIS2_PLACEMENT_3D('',#427,#325,#326);
#278=AXIS2_PLACEMENT_3D('',#428,#327,#328);
#279=AXIS2_PLACEMENT_3D('',#430,#329,#330);
#280=AXIS2_PLACEMENT_3D('',#433,#332,#333);
#281=AXIS2_PLACEMENT_3D('',#434,#334,#335);
#282=AXIS2_PLACEMENT_3D('',#436,#336,#337);
#283=AXIS2_PLACEMENT_3D('',#437,#338,#339);
#284=AXIS2_PLACEMENT_3D('',#440,#341,#342);
#285=AXIS2_PLACEMENT_3D('',#441,#343,#344);
#286=AXIS2_PLACEMENT_3D('',#442,#345,#346);
#287=AXIS2_PLACEMENT_3D('',#445,#347,#348);
#288=AXIS2_PLACEMENT_3D('',#447,#349,#350);
#289=AXIS2_PLACEMENT_3D('',#449,#351,#352);
#290=AXIS2_PLACEMENT_3D('',#450,#353,#354);
#291=AXIS2_PLACEMENT_3D('',#451,#355,#356);
#292=AXIS2_PLACEMENT_3D('',#452,#357,#358);
#293=AXIS2_PLACEMENT_3D('',#454,#359,#360);
#294=AXIS2_PLACEMENT_3D('',#456,#362,#363);
#295=AXIS2_PLACEMENT_3D('',#459,#364,#365);
#296=AXIS2_PLACEMENT_3D('',#460,#366,#367);
#297=AXIS2_PLACEMENT_3D('',#462,#369,#370);
#298=AXIS2_PLACEMENT_3D('',#465,#371,#372);
#299=AXIS2_PLACEMENT_3D('',#467,#373,#374);
#300=AXIS2_PLACEMENT_3D('',#469,#375,#376);
#301=AXIS2_PLACEMENT_3D('',#470,#377,#378);
#302=AXIS2_PLACEMENT_3D('',#471,#379,#380);
#303=AXIS2_PLACEMENT_3D('',#472,#381,#382);
#304=AXIS2_PLACEMENT_3D('',#474,#383,#384);
#305=AXIS2_PLACEMENT_3D('',#476,#386,#387);
#306=AXIS2_PLACEMENT_3D('',#479,#388,#389);
#307=AXIS2_PLACEMENT_3D('',#481,#391,#392);
#308=AXIS2_PLACEMENT_3D('',#482,#393,#394);
#309=AXIS2_PLACEMENT_3D('',#483,#395,#396);
#310=AXIS2_PLACEMENT_3D('',#485,#397,#398);
#311=AXIS2_PLACEMENT_3D('',#488,#400,#401);
#312=AXIS2_PLACEMENT_3D('',#489,#402,#403);
#313=AXIS2_PLACEMENT_3D('',#493,#405,#406);
#314=AXIS2_PLACEMENT_3D('',#494,#407,#408);
#315=AXIS2_PLACEMENT_3D('',#495,#409,#410);
#316=AXIS2_PLACEMENT_3D('',#496,#411,#412);
#317=AXIS2_PLACEMENT_3D('',#497,#413,#414);
#318=AXIS2_PLACEMENT_3D('',#499,#415,#416);
#319=AXIS2_PLACEMENT_3D('',#501,#417,#418);
#320=AXIS2_PLACEMENT_3D('',#502,#419,#420);
#321=AXIS2_PLACEMENT_3D('',#503,#421,#422);
#322=AXIS2_PLACEMENT_3D('',#505,#424,#425);
#323=DIRECTION('axis',(0.,0.,1.));
#324=DIRECTION('refdir',(1.,0.,0.));
#325=DIRECTION('axis',(0.,0.,1.));
#326=DIRECTION('refdir',(1.,0.,0.));
#327=DIRECTION('center_axis',(0.,0.,1.));
#328=DIRECTION('ref_axis',(1.,0.,0.));
#329=DIRECTION('center_axis',(0.,0.,1.));
#330=DIRECTION('ref_axis',(1.,0.,0.));
#331=DIRECTION('',(0.,0.,-1.));
#332=DIRECTION('center_axis',(0.,0.,1.));
#333=DIRECTION('ref_axis',(1.,0.,0.));
#334=DIRECTION('center_axis',(0.,0.,1.));
#335=DIRECTION('ref_axis',(0.,-1.,0.));
#336=DIRECTION('center_axis',(0.,0.,1.));
#337=DIRECTION('ref_axis',(1.,0.,0.));
#338=DIRECTION('center_axis',(0.,0.,1.));
#339=DIRECTION('ref_axis',(1.,0.,0.));
#340=DIRECTION('',(0.,0.,-1.));
#341=DIRECTION('center_axis',(0.,0.,1.));
#342=DIRECTION('ref_axis',(1.,0.,0.));
#343=DIRECTION('center_axis',(0.,0.,-1.));
#344=DIRECTION('ref_axis',(0.,1.,0.));
#345=DIRECTION('center_axis',(0.,0.,-1.));
#346=DIRECTION('ref_axis',(0.,1.,0.));
#347=DIRECTION('center_axis',(0.,0.,1.));
#348=DIRECTION('ref_axis',(1.,0.,0.));
#349=DIRECTION('center_axis',(-1.,0.,0.));
#350=DIRECTION('ref_axis',(0.,-1.,0.));
#351=DIRECTION('center_axis',(0.,0.,-1.));
#352=DIRECTION('ref_axis',(1.,0.,0.));
#353=DIRECTION('center_axis',(0.,0.,-1.));
#354=DIRECTION('ref_axis',(1.,0.,0.));
#355=DIRECTION('center_axis',(0.,0.,1.));
#356=DIRECTION('ref_axis',(1.,0.,0.));
#357=DIRECTION('center_axis',(0.,0.,1.));
#358=DIRECTION('ref_axis',(-1.,0.,0.));
#359=DIRECTION('center_axis',(0.,0.,-1.));
#360=DIRECTION('ref_axis',(1.,0.,0.));
#361=DIRECTION('',(0.0816096229050665,-9.99429634703122E-18,0.996664371515955));
#362=DIRECTION('center_axis',(0.,0.,-1.));
#363=DIRECTION('ref_axis',(1.,0.,0.));
#364=DIRECTION('center_axis',(0.,0.,-1.));
#365=DIRECTION('ref_axis',(1.,0.,0.));
#366=DIRECTION('center_axis',(0.,0.,-1.));
#367=DIRECTION('ref_axis',(1.,0.,0.));
#368=DIRECTION('',(0.,0.,-1.));
#369=DIRECTION('center_axis',(0.,0.,1.));
#370=DIRECTION('ref_axis',(0.,-1.,0.));
#371=DIRECTION('center_axis',(0.,0.,1.));
#372=DIRECTION('ref_axis',(1.,0.,0.));
#373=DIRECTION('center_axis',(-1.,0.,0.));
#374=DIRECTION('ref_axis',(0.,1.,0.));
#375=DIRECTION('center_axis',(0.,0.,-1.));
#376=DIRECTION('ref_axis',(1.,0.,0.));
#377=DIRECTION('center_axis',(0.,0.,-1.));
#378=DIRECTION('ref_axis',(1.,0.,0.));
#379=DIRECTION('center_axis',(0.,0.,1.));
#380=DIRECTION('ref_axis',(1.,0.,0.));
#381=DIRECTION('center_axis',(0.,0.,1.));
#382=DIRECTION('ref_axis',(-1.,0.,0.));
#383=DIRECTION('center_axis',(0.,0.,-1.));
#384=DIRECTION('ref_axis',(1.,0.,0.));
#385=DIRECTION('',(0.0818507512156444,-1.00238260484045E-17,0.996644597901095));
#386=DIRECTION('center_axis',(0.,0.,-1.));
#387=DIRECTION('ref_axis',(1.,0.,0.));
#388=DIRECTION('center_axis',(0.,0.,-1.));
#389=DIRECTION('ref_axis',(1.,0.,0.));
#390=DIRECTION('',(0.,0.,-1.));
#391=DIRECTION('center_axis',(0.,0.,-1.));
#392=DIRECTION('ref_axis',(1.,0.,0.));
#393=DIRECTION('center_axis',(0.,0.,-1.));
#394=DIRECTION('ref_axis',(-1.,0.,0.));
#395=DIRECTION('center_axis',(0.,0.,-1.));
#396=DIRECTION('ref_axis',(1.,0.,0.));
#397=DIRECTION('center_axis',(0.,0.,-1.));
#398=DIRECTION('ref_axis',(1.,0.,0.));
#399=DIRECTION('',(-0.872877878940047,1.06896710049046E-16,-0.487938734327503));
#400=DIRECTION('center_axis',(0.,0.,-1.));
#401=DIRECTION('ref_axis',(1.,0.,0.));
#402=DIRECTION('center_axis',(0.,0.,1.));
#403=DIRECTION('ref_axis',(1.,0.,0.));
#404=DIRECTION('',(0.48793873432749,-5.97552609174172E-17,-0.872877878940054));
#405=DIRECTION('center_axis',(0.,0.,-1.));
#406=DIRECTION('ref_axis',(1.,0.,0.));
#407=DIRECTION('center_axis',(0.,0.,-1.));
#408=DIRECTION('ref_axis',(1.,0.,0.));
#409=DIRECTION('center_axis',(0.,0.,1.));
#410=DIRECTION('ref_axis',(0.,1.,0.));
#411=DIRECTION('center_axis',(1.,0.,0.));
#412=DIRECTION('ref_axis',(0.,-1.,0.));
#413=DIRECTION('center_axis',(0.,0.,1.));
#414=DIRECTION('ref_axis',(0.,1.,0.));
#415=DIRECTION('center_axis',(1.,0.,0.));
#416=DIRECTION('ref_axis',(0.,-1.,0.));
#417=DIRECTION('center_axis',(0.,0.,-1.));
#418=DIRECTION('ref_axis',(1.,0.,0.));
#419=DIRECTION('center_axis',(0.,0.,-1.));
#420=DIRECTION('ref_axis',(1.,0.,0.));
#421=DIRECTION('center_axis',(0.,0.,1.));
#422=DIRECTION('ref_axis',(1.,0.,0.));
#423=DIRECTION('',(0.48793873432748,-5.9755260917416E-17,-0.872877878940059));
#424=DIRECTION('',(0.,0.,1.));
#425=DIRECTION('',(1.,0.,0.));
#426=CARTESIAN_POINT('',(0.,0.,0.));
#427=CARTESIAN_POINT('',(0.,0.,0.));
#428=CARTESIAN_POINT('Origin',(129.797305419129,97.193933037028,-100.035068255088));
#429=CARTESIAN_POINT('',(72.647305419129,97.193933037028,-50.0350682550879));
#430=CARTESIAN_POINT('Origin',(129.797305419129,97.193933037028,-50.0350682550879));
#431=CARTESIAN_POINT('',(72.647305419129,97.193933037028,-150.035068255088));
#432=CARTESIAN_POINT('',(72.647305419129,97.193933037028,-100.035068255088));
#433=CARTESIAN_POINT('Origin',(129.797305419129,97.193933037028,-150.035068255088));
#434=CARTESIAN_POINT('Origin',(178.387305419129,97.193933037028,-50.0350682550879));
#435=CARTESIAN_POINT('',(81.2073054191289,97.193933037028,-50.0350682550879));
#436=CARTESIAN_POINT('Origin',(129.797305419129,97.193933037028,-50.0350682550879));
#437=CARTESIAN_POINT('Origin',(129.797305419129,97.193933037028,-100.035068255088));
#438=CARTESIAN_POINT('',(81.2073054191289,97.193933037028,-150.035068255088));
#439=CARTESIAN_POINT('',(81.2073054191289,97.193933037028,-100.035068255088));
#440=CARTESIAN_POINT('Origin',(129.797305419129,97.193933037028,-150.035068255088));
#441=CARTESIAN_POINT('Origin',(186.947305419129,97.193933037028,-150.035068255088));
#442=CARTESIAN_POINT('Origin',(129.797305419129,97.193933037028,-260.340330215115));
#443=CARTESIAN_POINT('',(174.26561694853,97.193933037028,-261.115621632713));
#444=CARTESIAN_POINT('',(129.797305419129,52.7256215076264,-261.115621632713));
#445=CARTESIAN_POINT('Origin',(129.797305419129,97.193933037028,-261.115621632713));
#446=CARTESIAN_POINT('',(129.797305419129,52.693933037028,-260.340330215115));
#447=CARTESIAN_POINT('Origin',(129.797305419129,62.193933037028,-260.340330215115));
#448=CARTESIAN_POINT('',(85.2973054191289,97.193933037028,-260.340330215115));
#449=CARTESIAN_POINT('Origin',(129.797305419129,97.193933037028,-260.340330215115));
#450=CARTESIAN_POINT('Origin',(129.797305419129,97.193933037028,-260.340330215115));
#451=CARTESIAN_POINT('Origin',(129.797305419129,97.193933037028,-261.115621632713));
#452=CARTESIAN_POINT('Origin',(129.797305419129,97.193933037028,-265.381845890057));
#453=CARTESIAN_POINT('',(173.535268100737,97.193933037028,-270.035068255088));
#454=CARTESIAN_POINT('Origin',(129.797305419129,97.193933037028,-270.035068255088));
#455=CARTESIAN_POINT('',(173.916286759933,97.193933037028,-265.381845890057));
#456=CARTESIAN_POINT('Origin',(129.797305419129,97.193933037028,-173.772580328949));
#457=CARTESIAN_POINT('',(85.2973054191289,97.193933037028,-162.51009240281));
#458=CARTESIAN_POINT('',(129.797305419129,52.693933037028,-162.51009240281));
#459=CARTESIAN_POINT('Origin',(129.797305419129,97.193933037028,-162.51009240281));
#460=CARTESIAN_POINT('Origin',(129.797305419129,97.193933037028,-162.51009240281));
#461=CARTESIAN_POINT('',(85.2973054191289,97.193933037028,-173.772580328949));
#462=CARTESIAN_POINT('Origin',(129.797305419129,97.193933037028,-260.318682009636));
#463=CARTESIAN_POINT('',(86.7973054191289,97.193933037028,-260.318682009636));
#464=CARTESIAN_POINT('',(129.797305419129,140.193933037028,-260.318682009636));
#465=CARTESIAN_POINT('Origin',(129.797305419129,97.193933037028,-260.318682009636));
#466=CARTESIAN_POINT('',(129.797305419129,140.160379016039,-261.137189521793));
#467=CARTESIAN_POINT('Origin',(129.797305419129,130.193933037028,-260.318682009636));
#468=CARTESIAN_POINT('',(172.76375139814,97.193933037028,-261.137189521793));
#469=CARTESIAN_POINT('Origin',(129.797305419129,97.193933037028,-261.137189521793));
#470=CARTESIAN_POINT('Origin',(129.797305419129,97.193933037028,-261.137189521793));
#471=CARTESIAN_POINT('Origin',(129.797305419129,97.193933037028,-260.318682009636));
#472=CARTESIAN_POINT('Origin',(129.797305419129,97.193933037028,-265.381845890057));
#473=CARTESIAN_POINT('',(172.033001379447,97.193933037028,-270.035068255088));
#474=CARTESIAN_POINT('Origin',(129.797305419129,97.193933037028,-270.035068255088));
#475=CARTESIAN_POINT('',(172.415153399288,97.193933037028,-265.381845890057));
#476=CARTESIAN_POINT('Origin',(129.797305419129,97.193933037028,-173.772580328949));
#477=CARTESIAN_POINT('',(86.7973054191289,97.193933037028,-162.51009240281));
#478=CARTESIAN_POINT('',(129.797305419129,54.193933037028,-162.51009240281));
#479=CARTESIAN_POINT('Origin',(129.797305419129,97.193933037028,-162.51009240281));
#480=CARTESIAN_POINT('',(86.7973054191289,97.193933037028,-173.772580328949));
#481=CARTESIAN_POINT('Origin',(129.797305419129,97.193933037028,-162.51009240281));
#482=CARTESIAN_POINT('Origin',(87.5616094588103,97.193933037028,-270.035068255088));
#483=CARTESIAN_POINT('Origin',(129.797305419129,97.193933037028,-150.401022305834));
#484=CARTESIAN_POINT('',(81.2073054191289,97.193933037028,-150.035068255088));
#485=CARTESIAN_POINT('Origin',(129.797305419129,97.193933037028,-150.035068255088));
#486=CARTESIAN_POINT('',(79.8979886007189,97.193933037028,-150.766976356579));
#487=CARTESIAN_POINT('',(80.5526470099239,97.193933037028,-150.401022305834));
#488=CARTESIAN_POINT('Origin',(129.797305419129,97.193933037028,-150.766976356579));
#489=CARTESIAN_POINT('Origin',(129.797305419129,97.193933037028,-153.954871340894));
#490=CARTESIAN_POINT('',(85.5896452690595,97.193933037028,-157.874674426699));
#491=CARTESIAN_POINT('',(83.3984753440942,97.193933037028,-153.954871340894));
#492=CARTESIAN_POINT('',(129.797305419129,52.9862728869587,-157.874674426699));
#493=CARTESIAN_POINT('Origin',(129.797305419129,97.193933037028,-157.874674426699));
#494=CARTESIAN_POINT('Origin',(129.797305419129,97.193933037028,-157.874674426699));
#495=CARTESIAN_POINT('Origin',(129.797305419129,97.193933037028,-162.51009240281));
#496=CARTESIAN_POINT('Origin',(129.797305419129,44.6939330370288,-162.51009240281));
#497=CARTESIAN_POINT('Origin',(129.797305419129,97.193933037028,-162.510092402811));
#498=CARTESIAN_POINT('',(129.797305419129,51.6769560685485,-158.60658252819));
#499=CARTESIAN_POINT('Origin',(129.797305419129,44.6939330370265,-162.510092402811));
#500=CARTESIAN_POINT('',(84.2803284506493,97.193933037028,-158.60658252819));
#501=CARTESIAN_POINT('Origin',(129.797305419129,97.193933037028,-158.60658252819));
#502=CARTESIAN_POINT('Origin',(129.797305419129,97.193933037028,-158.60658252819));
#503=CARTESIAN_POINT('Origin',(129.797305419129,97.193933037028,-154.686779442385));
#504=CARTESIAN_POINT('',(82.0891585256841,97.193933037028,-154.686779442385));
#505=CARTESIAN_POINT('',(0.,0.,0.));
#506=UNCERTAINTY_MEASURE_WITH_UNIT(LENGTH_MEASURE(0.001),#512,
'DISTANCE_ACCURACY_VALUE',
'Maximum model space distance between geometric entities at asserted c
onnectivities');
#507=UNCERTAINTY_MEASURE_WITH_UNIT(LENGTH_MEASURE(0.001),#512,
'DISTANCE_ACCURACY_VALUE',
'Maximum model space distance between geometric entities at asserted c
onnectivities');
#508=UNCERTAINTY_MEASURE_WITH_UNIT(LENGTH_MEASURE(0.001),#512,
'DISTANCE_ACCURACY_VALUE',
'Maximum model space distance between geometric entities at asserted c
onnectivities');
#509=(
GEOMETRIC_REPRESENTATION_CONTEXT(3)
GLOBAL_UNCERTAINTY_ASSIGNED_CONTEXT((#506))
GLOBAL_UNIT_ASSIGNED_CONTEXT((#512,#513,#514))
REPRESENTATION_CONTEXT('','3D')
);
#510=(
GEOMETRIC_REPRESENTATION_CONTEXT(3)
GLOBAL_UNCERTAINTY_ASSIGNED_CONTEXT((#507))
GLOBAL_UNIT_ASSIGNED_CONTEXT((#512,#513,#514))
REPRESENTATION_CONTEXT('','3D')
);
#511=(
GEOMETRIC_REPRESENTATION_CONTEXT(3)
GLOBAL_UNCERTAINTY_ASSIGNED_CONTEXT((#508))
GLOBAL_UNIT_ASSIGNED_CONTEXT((#512,#513,#514))
REPRESENTATION_CONTEXT('','3D')
);
#512=(
LENGTH_UNIT()
NAMED_UNIT(*)
SI_UNIT(.CENTI.,.METRE.)
);
#513=(
NAMED_UNIT(*)
PLANE_ANGLE_UNIT()
SI_UNIT($,.RADIAN.)
);
#514=(
NAMED_UNIT(*)
SI_UNIT($,.STERADIAN.)
SOLID_ANGLE_UNIT()
);
#515=SHAPE_DEFINITION_REPRESENTATION(#517,#520);
#516=SHAPE_DEFINITION_REPRESENTATION(#518,#521);
#517=PRODUCT_DEFINITION_SHAPE('',$,#523);
#518=PRODUCT_DEFINITION_SHAPE('',$,#524);
#519=PRODUCT_DEFINITION_SHAPE($,$,#18);
#520=SHAPE_REPRESENTATION('',(#276,#322),#509);
#521=SHAPE_REPRESENTATION('',(#277),#510);
#522=PRODUCT_DEFINITION_CONTEXT('part definition',#530,'design');
#523=PRODUCT_DEFINITION('Product','Product',#525,#522);
#524=PRODUCT_DEFINITION('*S0','*S0',#526,#522);
#525=PRODUCT_DEFINITION_FORMATION('',$,#532);
#526=PRODUCT_DEFINITION_FORMATION('',$,#533);
#527=PRODUCT_RELATED_PRODUCT_CATEGORY('Product','Product',(#532));
#528=PRODUCT_RELATED_PRODUCT_CATEGORY('*S0','*S0',(#533));
#529=APPLICATION_PROTOCOL_DEFINITION('international standard',
'automotive_design',2009,#530);
#530=APPLICATION_CONTEXT(
'Core Data for Automotive Mechanical Design Process');
#531=PRODUCT_CONTEXT('part definition',#530,'mechanical');
#532=PRODUCT('Product','Product',$,(#531));
#533=PRODUCT('*S0','*S0',$,(#531));
#534=PRESENTATION_STYLE_ASSIGNMENT((#535));
#535=SURFACE_STYLE_USAGE(.BOTH.,#536);
#536=SURFACE_SIDE_STYLE('',(#537));
#537=SURFACE_STYLE_FILL_AREA(#538);
#538=FILL_AREA_STYLE('',(#539));
#539=FILL_AREA_STYLE_COLOUR('',#540);
#540=COLOUR_RGB('',0.866666666666667,0.866666666666667,0.866666666666667);
ENDSEC;
END-ISO-10303-21;
