ISO-10303-21;
HEADER;
/* Generated by software containing ST-Developer
 * from STEP Tools, Inc. (www.steptools.com) 
 */

FILE_DESCRIPTION(
/* description */ (''),
/* implementation_level */ '2;1');

FILE_NAME(
/* name */ '08225.070C_3D.stp',
/* time_stamp */ '2024-12-11T14:20:17+01:00',
/* author */ ('CAD'),
/* organization */ (''),
/* preprocessor_version */ 'ST-DEVELOPER v20',
/* originating_system */ 'AutoCAD Mechanical',
/* authorisation */ '');

FILE_SCHEMA (('AUTOMOTIVE_DESIGN { 1 0 10303 214 3 1 1 }'));
ENDSEC;

DATA;
#10=MECHANICAL_DESIGN_GEOMETRIC_PRESENTATION_REPRESENTATION('',(#23,#24),
#516);
#11=PRESENTATION_LAYER_ASSIGNMENT('4','ROHR',(#25));
#12=PRESENTATION_LAYER_ASSIGNMENT('5','H\X\DCLSE',(#26));
#13=SHAPE_REPRESENTATION_RELATIONSHIP('SRR','None',#525,#14);
#14=ADVANCED_BREP_SHAPE_REPRESENTATION('',(#25,#26),#514);
#15=ITEM_DEFINED_TRANSFORMATION($,$,#280,#325);
#16=(
REPRESENTATION_RELATIONSHIP($,$,#526,#525)
REPRESENTATION_RELATIONSHIP_WITH_TRANSFORMATION(#15)
SHAPE_REPRESENTATION_RELATIONSHIP()
);
#17=CONTEXT_DEPENDENT_SHAPE_REPRESENTATION(#16,#524);
#18=NEXT_ASSEMBLY_USAGE_OCCURRENCE('B3C','B3C','B3C',#528,#529,'B3C');
#19=FACE_BOUND('',#87,.T.);
#20=FACE_BOUND('',#90,.T.);
#21=PLANE('',#320);
#22=PLANE('',#324);
#23=STYLED_ITEM('',(#539),#25);
#24=STYLED_ITEM('',(#539),#26);
#25=MANIFOLD_SOLID_BREP('1DAD',#277);
#26=MANIFOLD_SOLID_BREP('1DB0',#278);
#27=CYLINDRICAL_SURFACE('',#289,36.5);
#28=CYLINDRICAL_SURFACE('',#300,35.);
#29=CYLINDRICAL_SURFACE('',#317,44.5);
#30=CYLINDRICAL_SURFACE('',#322,51.);
#31=LINE('',#445,#41);
#32=LINE('',#451,#42);
#33=LINE('',#465,#43);
#34=LINE('',#470,#44);
#35=LINE('',#473,#45);
#36=LINE('',#483,#46);
#37=LINE('',#486,#47);
#38=LINE('',#490,#48);
#39=LINE('',#500,#49);
#40=LINE('',#508,#50);
#41=VECTOR('',#346,35.7841121098854);
#42=VECTOR('',#353,36.5);
#43=VECTOR('',#370,34.3257121025101);
#44=VECTOR('',#375,35.);
#45=VECTOR('',#380,34.3598242123957);
#46=VECTOR('',#393,40.5017173323051);
#47=VECTOR('',#396,45.131307789636);
#48=VECTOR('',#401,41.7643329115772);
#49=VECTOR('',#414,44.5);
#50=VECTOR('',#425,51.);
#51=CONICAL_SURFACE('',#287,35.7841121098854,0.158888187054836);
#52=CONICAL_SURFACE('',#298,34.3257121025101,0.154106873030598);
#53=CONICAL_SURFACE('',#303,34.3598242123957,1.39358853420571);
#54=CONICAL_SURFACE('',#308,40.5017173323051,0.570291346517865);
#55=CONICAL_SURFACE('',#310,45.131307789636,1.00050498027704);
#56=CONICAL_SURFACE('',#312,41.7643329115772,0.570291346517873);
#57=FACE_OUTER_BOUND('',#73,.T.);
#58=FACE_OUTER_BOUND('',#74,.T.);
#59=FACE_OUTER_BOUND('',#75,.T.);
#60=FACE_OUTER_BOUND('',#76,.T.);
#61=FACE_OUTER_BOUND('',#77,.T.);
#62=FACE_OUTER_BOUND('',#78,.T.);
#63=FACE_OUTER_BOUND('',#79,.T.);
#64=FACE_OUTER_BOUND('',#80,.T.);
#65=FACE_OUTER_BOUND('',#81,.T.);
#66=FACE_OUTER_BOUND('',#82,.T.);
#67=FACE_OUTER_BOUND('',#83,.T.);
#68=FACE_OUTER_BOUND('',#84,.T.);
#69=FACE_OUTER_BOUND('',#85,.T.);
#70=FACE_OUTER_BOUND('',#86,.T.);
#71=FACE_OUTER_BOUND('',#88,.T.);
#72=FACE_OUTER_BOUND('',#89,.T.);
#73=EDGE_LOOP('',(#181,#182,#183,#184,#185,#186));
#74=EDGE_LOOP('',(#187,#188,#189,#190,#191));
#75=EDGE_LOOP('',(#192,#193,#194,#195,#196,#197));
#76=EDGE_LOOP('',(#198,#199,#200,#201,#202,#203));
#77=EDGE_LOOP('',(#204,#205,#206,#207,#208));
#78=EDGE_LOOP('',(#209,#210,#211,#212,#213,#214));
#79=EDGE_LOOP('',(#215,#216,#217,#218));
#80=EDGE_LOOP('',(#219,#220,#221,#222,#223,#224));
#81=EDGE_LOOP('',(#225,#226,#227,#228,#229));
#82=EDGE_LOOP('',(#230,#231,#232,#233));
#83=EDGE_LOOP('',(#234,#235,#236,#237,#238));
#84=EDGE_LOOP('',(#239,#240,#241,#242,#243,#244));
#85=EDGE_LOOP('',(#245,#246,#247,#248));
#86=EDGE_LOOP('',(#249));
#87=EDGE_LOOP('',(#250));
#88=EDGE_LOOP('',(#251,#252,#253,#254));
#89=EDGE_LOOP('',(#255));
#90=EDGE_LOOP('',(#256));
#91=CIRCLE('',#282,36.3929323443194);
#92=CIRCLE('',#283,8.5);
#93=CIRCLE('',#284,36.5);
#94=CIRCLE('',#285,36.5);
#95=CIRCLE('',#286,36.3929323443194);
#96=CIRCLE('',#288,35.068224219771);
#97=CIRCLE('',#290,36.5);
#98=CIRCLE('',#291,36.5);
#99=CIRCLE('',#293,35.);
#100=CIRCLE('',#294,10.);
#101=CIRCLE('',#295,34.8814901772971);
#102=CIRCLE('',#296,34.8814901772971);
#103=CIRCLE('',#297,35.);
#104=CIRCLE('',#299,33.6514242050204);
#105=CIRCLE('',#301,35.);
#106=CIRCLE('',#302,35.);
#107=CIRCLE('',#305,9.50000000000102);
#108=CIRCLE('',#306,36.5034346646103);
#109=CIRCLE('',#307,36.5034346646103);
#110=CIRCLE('',#309,44.5);
#111=CIRCLE('',#311,45.7626155792721);
#112=CIRCLE('',#313,37.7660502438822);
#113=CIRCLE('',#314,37.7660502438822);
#114=CIRCLE('',#316,8.00000000000045);
#115=CIRCLE('',#318,44.5);
#116=CIRCLE('',#319,44.5);
#117=CIRCLE('',#321,51.);
#118=CIRCLE('',#323,51.);
#119=VERTEX_POINT('',#433);
#120=VERTEX_POINT('',#434);
#121=VERTEX_POINT('',#436);
#122=VERTEX_POINT('',#438);
#123=VERTEX_POINT('',#443);
#124=VERTEX_POINT('',#447);
#125=VERTEX_POINT('',#448);
#126=VERTEX_POINT('',#453);
#127=VERTEX_POINT('',#454);
#128=VERTEX_POINT('',#456);
#129=VERTEX_POINT('',#458);
#130=VERTEX_POINT('',#463);
#131=VERTEX_POINT('',#467);
#132=VERTEX_POINT('',#468);
#133=VERTEX_POINT('',#475);
#134=VERTEX_POINT('',#477);
#135=VERTEX_POINT('',#481);
#136=VERTEX_POINT('',#485);
#137=VERTEX_POINT('',#489);
#138=VERTEX_POINT('',#491);
#139=VERTEX_POINT('',#497);
#140=VERTEX_POINT('',#499);
#141=VERTEX_POINT('',#503);
#142=VERTEX_POINT('',#506);
#143=EDGE_CURVE('',#119,#120,#91,.T.);
#144=EDGE_CURVE('',#120,#121,#92,.T.);
#145=EDGE_CURVE('',#121,#122,#93,.T.);
#146=EDGE_CURVE('',#122,#121,#94,.T.);
#147=EDGE_CURVE('',#120,#119,#95,.T.);
#148=EDGE_CURVE('',#123,#123,#96,.T.);
#149=EDGE_CURVE('',#123,#119,#31,.T.);
#150=EDGE_CURVE('',#124,#125,#97,.T.);
#151=EDGE_CURVE('',#125,#124,#98,.T.);
#152=EDGE_CURVE('',#124,#122,#32,.T.);
#153=EDGE_CURVE('',#126,#127,#99,.T.);
#154=EDGE_CURVE('',#127,#128,#100,.T.);
#155=EDGE_CURVE('',#128,#129,#101,.T.);
#156=EDGE_CURVE('',#129,#128,#102,.T.);
#157=EDGE_CURVE('',#127,#126,#103,.T.);
#158=EDGE_CURVE('',#130,#130,#104,.T.);
#159=EDGE_CURVE('',#130,#129,#33,.T.);
#160=EDGE_CURVE('',#131,#132,#105,.T.);
#161=EDGE_CURVE('',#131,#126,#34,.T.);
#162=EDGE_CURVE('',#132,#131,#106,.T.);
#163=EDGE_CURVE('',#123,#130,#35,.T.);
#164=EDGE_CURVE('',#132,#133,#107,.T.);
#165=EDGE_CURVE('',#134,#133,#108,.T.);
#166=EDGE_CURVE('',#133,#134,#109,.T.);
#167=EDGE_CURVE('',#135,#135,#110,.T.);
#168=EDGE_CURVE('',#135,#134,#36,.T.);
#169=EDGE_CURVE('',#135,#136,#37,.T.);
#170=EDGE_CURVE('',#136,#136,#111,.T.);
#171=EDGE_CURVE('',#136,#137,#38,.T.);
#172=EDGE_CURVE('',#138,#137,#112,.T.);
#173=EDGE_CURVE('',#137,#138,#113,.T.);
#174=EDGE_CURVE('',#125,#138,#114,.T.);
#175=EDGE_CURVE('',#139,#139,#115,.T.);
#176=EDGE_CURVE('',#139,#140,#39,.T.);
#177=EDGE_CURVE('',#140,#140,#116,.T.);
#178=EDGE_CURVE('',#141,#141,#117,.T.);
#179=EDGE_CURVE('',#142,#142,#118,.T.);
#180=EDGE_CURVE('',#142,#141,#40,.T.);
#181=ORIENTED_EDGE('',*,*,#143,.T.);
#182=ORIENTED_EDGE('',*,*,#144,.T.);
#183=ORIENTED_EDGE('',*,*,#145,.T.);
#184=ORIENTED_EDGE('',*,*,#146,.T.);
#185=ORIENTED_EDGE('',*,*,#144,.F.);
#186=ORIENTED_EDGE('',*,*,#147,.T.);
#187=ORIENTED_EDGE('',*,*,#148,.F.);
#188=ORIENTED_EDGE('',*,*,#149,.T.);
#189=ORIENTED_EDGE('',*,*,#147,.F.);
#190=ORIENTED_EDGE('',*,*,#143,.F.);
#191=ORIENTED_EDGE('',*,*,#149,.F.);
#192=ORIENTED_EDGE('',*,*,#150,.T.);
#193=ORIENTED_EDGE('',*,*,#151,.T.);
#194=ORIENTED_EDGE('',*,*,#152,.T.);
#195=ORIENTED_EDGE('',*,*,#145,.F.);
#196=ORIENTED_EDGE('',*,*,#146,.F.);
#197=ORIENTED_EDGE('',*,*,#152,.F.);
#198=ORIENTED_EDGE('',*,*,#153,.T.);
#199=ORIENTED_EDGE('',*,*,#154,.T.);
#200=ORIENTED_EDGE('',*,*,#155,.T.);
#201=ORIENTED_EDGE('',*,*,#156,.T.);
#202=ORIENTED_EDGE('',*,*,#154,.F.);
#203=ORIENTED_EDGE('',*,*,#157,.T.);
#204=ORIENTED_EDGE('',*,*,#158,.T.);
#205=ORIENTED_EDGE('',*,*,#159,.T.);
#206=ORIENTED_EDGE('',*,*,#155,.F.);
#207=ORIENTED_EDGE('',*,*,#156,.F.);
#208=ORIENTED_EDGE('',*,*,#159,.F.);
#209=ORIENTED_EDGE('',*,*,#160,.F.);
#210=ORIENTED_EDGE('',*,*,#161,.T.);
#211=ORIENTED_EDGE('',*,*,#157,.F.);
#212=ORIENTED_EDGE('',*,*,#153,.F.);
#213=ORIENTED_EDGE('',*,*,#161,.F.);
#214=ORIENTED_EDGE('',*,*,#162,.F.);
#215=ORIENTED_EDGE('',*,*,#148,.T.);
#216=ORIENTED_EDGE('',*,*,#163,.T.);
#217=ORIENTED_EDGE('',*,*,#158,.F.);
#218=ORIENTED_EDGE('',*,*,#163,.F.);
#219=ORIENTED_EDGE('',*,*,#160,.T.);
#220=ORIENTED_EDGE('',*,*,#164,.T.);
#221=ORIENTED_EDGE('',*,*,#165,.F.);
#222=ORIENTED_EDGE('',*,*,#166,.F.);
#223=ORIENTED_EDGE('',*,*,#164,.F.);
#224=ORIENTED_EDGE('',*,*,#162,.T.);
#225=ORIENTED_EDGE('',*,*,#167,.F.);
#226=ORIENTED_EDGE('',*,*,#168,.T.);
#227=ORIENTED_EDGE('',*,*,#165,.T.);
#228=ORIENTED_EDGE('',*,*,#166,.T.);
#229=ORIENTED_EDGE('',*,*,#168,.F.);
#230=ORIENTED_EDGE('',*,*,#167,.T.);
#231=ORIENTED_EDGE('',*,*,#169,.T.);
#232=ORIENTED_EDGE('',*,*,#170,.F.);
#233=ORIENTED_EDGE('',*,*,#169,.F.);
#234=ORIENTED_EDGE('',*,*,#170,.T.);
#235=ORIENTED_EDGE('',*,*,#171,.T.);
#236=ORIENTED_EDGE('',*,*,#172,.F.);
#237=ORIENTED_EDGE('',*,*,#173,.F.);
#238=ORIENTED_EDGE('',*,*,#171,.F.);
#239=ORIENTED_EDGE('',*,*,#150,.F.);
#240=ORIENTED_EDGE('',*,*,#151,.F.);
#241=ORIENTED_EDGE('',*,*,#174,.T.);
#242=ORIENTED_EDGE('',*,*,#172,.T.);
#243=ORIENTED_EDGE('',*,*,#173,.T.);
#244=ORIENTED_EDGE('',*,*,#174,.F.);
#245=ORIENTED_EDGE('',*,*,#175,.T.);
#246=ORIENTED_EDGE('',*,*,#176,.T.);
#247=ORIENTED_EDGE('',*,*,#177,.F.);
#248=ORIENTED_EDGE('',*,*,#176,.F.);
#249=ORIENTED_EDGE('',*,*,#178,.F.);
#250=ORIENTED_EDGE('',*,*,#177,.T.);
#251=ORIENTED_EDGE('',*,*,#179,.F.);
#252=ORIENTED_EDGE('',*,*,#180,.T.);
#253=ORIENTED_EDGE('',*,*,#178,.T.);
#254=ORIENTED_EDGE('',*,*,#180,.F.);
#255=ORIENTED_EDGE('',*,*,#179,.T.);
#256=ORIENTED_EDGE('',*,*,#175,.F.);
#257=TOROIDAL_SURFACE('',#281,28.,8.5);
#258=TOROIDAL_SURFACE('',#292,25.,10.);
#259=TOROIDAL_SURFACE('',#304,44.500000000001,9.50000000000102);
#260=TOROIDAL_SURFACE('',#315,44.5000000000005,8.00000000000045);
#261=ADVANCED_FACE('',(#57),#257,.T.);
#262=ADVANCED_FACE('',(#58),#51,.T.);
#263=ADVANCED_FACE('',(#59),#27,.T.);
#264=ADVANCED_FACE('',(#60),#258,.F.);
#265=ADVANCED_FACE('',(#61),#52,.F.);
#266=ADVANCED_FACE('',(#62),#28,.F.);
#267=ADVANCED_FACE('',(#63),#53,.F.);
#268=ADVANCED_FACE('',(#64),#259,.T.);
#269=ADVANCED_FACE('',(#65),#54,.F.);
#270=ADVANCED_FACE('',(#66),#55,.T.);
#271=ADVANCED_FACE('',(#67),#56,.T.);
#272=ADVANCED_FACE('',(#68),#260,.F.);
#273=ADVANCED_FACE('',(#69),#29,.F.);
#274=ADVANCED_FACE('',(#70,#19),#21,.T.);
#275=ADVANCED_FACE('',(#71),#30,.T.);
#276=ADVANCED_FACE('',(#72,#20),#22,.T.);
#277=CLOSED_SHELL('',(#261,#262,#263,#264,#265,#266,#267,#268,#269,#270,
#271,#272));
#278=CLOSED_SHELL('',(#273,#274,#275,#276));
#279=AXIS2_PLACEMENT_3D('',#430,#326,#327);
#280=AXIS2_PLACEMENT_3D('',#431,#328,#329);
#281=AXIS2_PLACEMENT_3D('',#432,#330,#331);
#282=AXIS2_PLACEMENT_3D('',#435,#332,#333);
#283=AXIS2_PLACEMENT_3D('',#437,#334,#335);
#284=AXIS2_PLACEMENT_3D('',#439,#336,#337);
#285=AXIS2_PLACEMENT_3D('',#440,#338,#339);
#286=AXIS2_PLACEMENT_3D('',#441,#340,#341);
#287=AXIS2_PLACEMENT_3D('',#442,#342,#343);
#288=AXIS2_PLACEMENT_3D('',#444,#344,#345);
#289=AXIS2_PLACEMENT_3D('',#446,#347,#348);
#290=AXIS2_PLACEMENT_3D('',#449,#349,#350);
#291=AXIS2_PLACEMENT_3D('',#450,#351,#352);
#292=AXIS2_PLACEMENT_3D('',#452,#354,#355);
#293=AXIS2_PLACEMENT_3D('',#455,#356,#357);
#294=AXIS2_PLACEMENT_3D('',#457,#358,#359);
#295=AXIS2_PLACEMENT_3D('',#459,#360,#361);
#296=AXIS2_PLACEMENT_3D('',#460,#362,#363);
#297=AXIS2_PLACEMENT_3D('',#461,#364,#365);
#298=AXIS2_PLACEMENT_3D('',#462,#366,#367);
#299=AXIS2_PLACEMENT_3D('',#464,#368,#369);
#300=AXIS2_PLACEMENT_3D('',#466,#371,#372);
#301=AXIS2_PLACEMENT_3D('',#469,#373,#374);
#302=AXIS2_PLACEMENT_3D('',#471,#376,#377);
#303=AXIS2_PLACEMENT_3D('',#472,#378,#379);
#304=AXIS2_PLACEMENT_3D('',#474,#381,#382);
#305=AXIS2_PLACEMENT_3D('',#476,#383,#384);
#306=AXIS2_PLACEMENT_3D('',#478,#385,#386);
#307=AXIS2_PLACEMENT_3D('',#479,#387,#388);
#308=AXIS2_PLACEMENT_3D('',#480,#389,#390);
#309=AXIS2_PLACEMENT_3D('',#482,#391,#392);
#310=AXIS2_PLACEMENT_3D('',#484,#394,#395);
#311=AXIS2_PLACEMENT_3D('',#487,#397,#398);
#312=AXIS2_PLACEMENT_3D('',#488,#399,#400);
#313=AXIS2_PLACEMENT_3D('',#492,#402,#403);
#314=AXIS2_PLACEMENT_3D('',#493,#404,#405);
#315=AXIS2_PLACEMENT_3D('',#494,#406,#407);
#316=AXIS2_PLACEMENT_3D('',#495,#408,#409);
#317=AXIS2_PLACEMENT_3D('',#496,#410,#411);
#318=AXIS2_PLACEMENT_3D('',#498,#412,#413);
#319=AXIS2_PLACEMENT_3D('',#501,#415,#416);
#320=AXIS2_PLACEMENT_3D('',#502,#417,#418);
#321=AXIS2_PLACEMENT_3D('',#504,#419,#420);
#322=AXIS2_PLACEMENT_3D('',#505,#421,#422);
#323=AXIS2_PLACEMENT_3D('',#507,#423,#424);
#324=AXIS2_PLACEMENT_3D('',#509,#426,#427);
#325=AXIS2_PLACEMENT_3D('',#510,#428,#429);
#326=DIRECTION('axis',(0.,0.,1.));
#327=DIRECTION('refdir',(1.,0.,0.));
#328=DIRECTION('axis',(0.,0.,1.));
#329=DIRECTION('refdir',(1.,0.,0.));
#330=DIRECTION('center_axis',(0.,0.,-1.));
#331=DIRECTION('ref_axis',(0.,1.,0.));
#332=DIRECTION('center_axis',(0.,0.,1.));
#333=DIRECTION('ref_axis',(1.,0.,0.));
#334=DIRECTION('center_axis',(-1.,0.,0.));
#335=DIRECTION('ref_axis',(0.,-1.,0.));
#336=DIRECTION('center_axis',(0.,0.,-1.));
#337=DIRECTION('ref_axis',(1.,0.,0.));
#338=DIRECTION('center_axis',(0.,0.,-1.));
#339=DIRECTION('ref_axis',(1.,0.,0.));
#340=DIRECTION('center_axis',(0.,0.,1.));
#341=DIRECTION('ref_axis',(1.,0.,0.));
#342=DIRECTION('center_axis',(0.,0.,1.));
#343=DIRECTION('ref_axis',(-1.,0.,0.));
#344=DIRECTION('center_axis',(0.,0.,-1.));
#345=DIRECTION('ref_axis',(1.,0.,0.));
#346=DIRECTION('',(0.158220496298062,-1.93764224350927E-17,0.987403805214055));
#347=DIRECTION('center_axis',(0.,0.,-1.));
#348=DIRECTION('ref_axis',(1.,0.,0.));
#349=DIRECTION('center_axis',(0.,0.,-1.));
#350=DIRECTION('ref_axis',(1.,0.,0.));
#351=DIRECTION('center_axis',(0.,0.,-1.));
#352=DIRECTION('ref_axis',(1.,0.,0.));
#353=DIRECTION('',(0.,0.,-1.));
#354=DIRECTION('center_axis',(0.,0.,1.));
#355=DIRECTION('ref_axis',(0.,-1.,0.));
#356=DIRECTION('center_axis',(0.,0.,1.));
#357=DIRECTION('ref_axis',(1.,0.,0.));
#358=DIRECTION('center_axis',(-1.,0.,0.));
#359=DIRECTION('ref_axis',(0.,1.,0.));
#360=DIRECTION('center_axis',(0.,0.,-1.));
#361=DIRECTION('ref_axis',(1.,0.,0.));
#362=DIRECTION('center_axis',(0.,0.,-1.));
#363=DIRECTION('ref_axis',(1.,0.,0.));
#364=DIRECTION('center_axis',(0.,0.,1.));
#365=DIRECTION('ref_axis',(1.,0.,0.));
#366=DIRECTION('center_axis',(0.,0.,1.));
#367=DIRECTION('ref_axis',(-1.,0.,0.));
#368=DIRECTION('center_axis',(0.,0.,-1.));
#369=DIRECTION('ref_axis',(1.,0.,0.));
#370=DIRECTION('',(0.153497618091613,-1.87980366672637E-17,0.988149017729715));
#371=DIRECTION('center_axis',(0.,0.,-1.));
#372=DIRECTION('ref_axis',(1.,0.,0.));
#373=DIRECTION('center_axis',(0.,0.,-1.));
#374=DIRECTION('ref_axis',(1.,0.,0.));
#375=DIRECTION('',(0.,0.,-1.));
#376=DIRECTION('center_axis',(0.,0.,-1.));
#377=DIRECTION('ref_axis',(1.,0.,0.));
#378=DIRECTION('center_axis',(0.,0.,-1.));
#379=DIRECTION('ref_axis',(-1.,0.,0.));
#380=DIRECTION('',(-0.984339744612315,1.205468517513E-16,0.176281783450705));
#381=DIRECTION('center_axis',(0.,0.,1.));
#382=DIRECTION('ref_axis',(0.,1.,0.));
#383=DIRECTION('center_axis',(1.,0.,0.));
#384=DIRECTION('ref_axis',(0.,-1.,0.));
#385=DIRECTION('center_axis',(0.,0.,-1.));
#386=DIRECTION('ref_axis',(1.,0.,0.));
#387=DIRECTION('center_axis',(0.,0.,-1.));
#388=DIRECTION('ref_axis',(1.,0.,0.));
#389=DIRECTION('center_axis',(0.,0.,1.));
#390=DIRECTION('ref_axis',(1.,0.,0.));
#391=DIRECTION('center_axis',(0.,0.,-1.));
#392=DIRECTION('ref_axis',(1.,0.,0.));
#393=DIRECTION('',(0.539877310745262,-6.61159020536466E-17,-0.841743719514713));
#394=DIRECTION('center_axis',(0.,0.,-1.));
#395=DIRECTION('ref_axis',(1.,0.,0.));
#396=DIRECTION('',(-0.841743719514717,1.03083875180609E-16,-0.539877310745255));
#397=DIRECTION('center_axis',(0.,0.,-1.));
#398=DIRECTION('ref_axis',(1.,0.,0.));
#399=DIRECTION('center_axis',(0.,0.,1.));
#400=DIRECTION('ref_axis',(1.,0.,0.));
#401=DIRECTION('',(0.539877310745269,-6.61159020536475E-17,-0.841743719514708));
#402=DIRECTION('center_axis',(0.,0.,-1.));
#403=DIRECTION('ref_axis',(1.,0.,0.));
#404=DIRECTION('center_axis',(0.,0.,-1.));
#405=DIRECTION('ref_axis',(1.,0.,0.));
#406=DIRECTION('center_axis',(0.,0.,1.));
#407=DIRECTION('ref_axis',(0.,1.,0.));
#408=DIRECTION('center_axis',(1.,0.,0.));
#409=DIRECTION('ref_axis',(0.,-1.,0.));
#410=DIRECTION('center_axis',(0.,0.,-1.));
#411=DIRECTION('ref_axis',(1.,0.,0.));
#412=DIRECTION('center_axis',(0.,0.,-1.));
#413=DIRECTION('ref_axis',(1.,0.,0.));
#414=DIRECTION('',(0.,0.,1.));
#415=DIRECTION('center_axis',(0.,0.,-1.));
#416=DIRECTION('ref_axis',(1.,0.,0.));
#417=DIRECTION('center_axis',(0.,0.,1.));
#418=DIRECTION('ref_axis',(0.,-1.,0.));
#419=DIRECTION('center_axis',(0.,0.,-1.));
#420=DIRECTION('ref_axis',(1.,0.,0.));
#421=DIRECTION('center_axis',(0.,0.,-1.));
#422=DIRECTION('ref_axis',(1.,0.,0.));
#423=DIRECTION('center_axis',(0.,0.,-1.));
#424=DIRECTION('ref_axis',(1.,0.,0.));
#425=DIRECTION('',(0.,0.,1.));
#426=DIRECTION('center_axis',(0.,0.,-1.));
#427=DIRECTION('ref_axis',(0.,1.,0.));
#428=DIRECTION('',(0.,0.,1.));
#429=DIRECTION('',(1.,0.,0.));
#430=CARTESIAN_POINT('',(0.,0.,0.));
#431=CARTESIAN_POINT('',(0.,0.,0.));
#432=CARTESIAN_POINT('Origin',(129.797305419129,97.1939330370281,-250.423111872224));
#433=CARTESIAN_POINT('',(166.190237763448,97.1939330370281,-251.767986090758));
#434=CARTESIAN_POINT('',(129.797305419129,60.8010006927086,-251.767986090758));
#435=CARTESIAN_POINT('Origin',(129.797305419129,97.1939330370281,-251.767986090758));
#436=CARTESIAN_POINT('',(129.797305419129,60.6939330370281,-250.423111872224));
#437=CARTESIAN_POINT('Origin',(129.797305419129,69.1939330370281,-250.423111872224));
#438=CARTESIAN_POINT('',(93.297305419129,97.1939330370281,-250.423111872224));
#439=CARTESIAN_POINT('Origin',(129.797305419129,97.1939330370281,-250.423111872224));
#440=CARTESIAN_POINT('Origin',(129.797305419129,97.1939330370281,-250.423111872224));
#441=CARTESIAN_POINT('Origin',(129.797305419129,97.1939330370281,-251.767986090758));
#442=CARTESIAN_POINT('Origin',(129.797305419129,97.1939330370281,-255.567439576474));
#443=CARTESIAN_POINT('',(164.8655296389,97.1939330370281,-260.035068255088));
#444=CARTESIAN_POINT('Origin',(129.797305419129,97.1939330370281,-260.035068255088));
#445=CARTESIAN_POINT('',(165.581417529014,97.1939330370281,-255.567439576474));
#446=CARTESIAN_POINT('Origin',(129.797305419129,97.1939330370281,-194.973741920504));
#447=CARTESIAN_POINT('',(93.297305419129,97.1939330370281,-167.631658833947));
#448=CARTESIAN_POINT('',(129.797305419129,60.6939330370281,-167.631658833947));
#449=CARTESIAN_POINT('Origin',(129.797305419129,97.1939330370281,-167.631658833947));
#450=CARTESIAN_POINT('Origin',(129.797305419129,97.1939330370281,-167.631658833947));
#451=CARTESIAN_POINT('',(93.297305419129,97.1939330370281,-194.973741920504));
#452=CARTESIAN_POINT('Origin',(129.797305419129,97.1939330370281,-250.32774795528));
#453=CARTESIAN_POINT('',(94.797305419129,97.1939330370281,-250.32774795528));
#454=CARTESIAN_POINT('',(129.797305419129,132.193933037028,-250.32774795528));
#455=CARTESIAN_POINT('Origin',(129.797305419129,97.1939330370281,-250.32774795528));
#456=CARTESIAN_POINT('',(129.797305419129,132.075423214325,-251.862724136196));
#457=CARTESIAN_POINT('Origin',(129.797305419129,122.193933037028,-250.32774795528));
#458=CARTESIAN_POINT('',(164.678795596426,97.1939330370281,-251.862724136196));
#459=CARTESIAN_POINT('Origin',(129.797305419129,97.1939330370281,-251.862724136196));
#460=CARTESIAN_POINT('Origin',(129.797305419129,97.1939330370281,-251.862724136196));
#461=CARTESIAN_POINT('Origin',(129.797305419129,97.1939330370281,-250.32774795528));
#462=CARTESIAN_POINT('Origin',(129.797305419129,97.1939330370281,-255.440574825376));
#463=CARTESIAN_POINT('',(163.448729624149,97.1939330370281,-259.781338752891));
#464=CARTESIAN_POINT('Origin',(129.797305419129,97.1939330370281,-259.781338752891));
#465=CARTESIAN_POINT('',(164.123017521639,97.1939330370281,-255.440574825376));
#466=CARTESIAN_POINT('Origin',(129.797305419129,97.1939330370281,-194.973741920504));
#467=CARTESIAN_POINT('',(94.797305419129,97.1939330370281,-167.631658833947));
#468=CARTESIAN_POINT('',(129.797305419129,62.1939330370281,-167.631658833947));
#469=CARTESIAN_POINT('Origin',(129.797305419129,97.1939330370281,-167.631658833947));
#470=CARTESIAN_POINT('',(94.797305419129,97.1939330370281,-194.973741920504));
#471=CARTESIAN_POINT('Origin',(129.797305419129,97.1939330370281,-167.631658833947));
#472=CARTESIAN_POINT('Origin',(129.797305419129,97.1939330370281,-259.908203503989));
#473=CARTESIAN_POINT('',(164.157129631525,97.1939330370281,-259.908203503989));
#474=CARTESIAN_POINT('Origin',(129.797305419129,97.1939330370281,-167.631658833948));
#475=CARTESIAN_POINT('',(129.797305419129,60.6904983724178,-162.502824381867));
#476=CARTESIAN_POINT('Origin',(129.797305419129,52.6939330370271,-167.631658833948));
#477=CARTESIAN_POINT('',(93.2938707545187,97.1939330370281,-162.502824381867));
#478=CARTESIAN_POINT('Origin',(129.797305419129,97.1939330370281,-162.502824381867));
#479=CARTESIAN_POINT('Origin',(129.797305419129,97.1939330370281,-162.502824381867));
#480=CARTESIAN_POINT('Origin',(129.797305419129,97.1939330370281,-156.268946318478));
#481=CARTESIAN_POINT('',(85.297305419129,97.1939330370281,-150.035068255088));
#482=CARTESIAN_POINT('Origin',(129.797305419129,97.1939330370281,-150.035068255088));
#483=CARTESIAN_POINT('',(89.2955880868238,97.1939330370281,-156.268946318478));
#484=CARTESIAN_POINT('Origin',(129.797305419129,97.1939330370281,-150.439976238147));
#485=CARTESIAN_POINT('',(84.0346898398569,97.1939330370281,-150.844884221206));
#486=CARTESIAN_POINT('',(84.6659976294929,97.1939330370281,-150.439976238147));
#487=CARTESIAN_POINT('Origin',(129.797305419129,97.1939330370281,-150.844884221206));
#488=CARTESIAN_POINT('Origin',(129.797305419129,97.1939330370281,-157.078762284596));
#489=CARTESIAN_POINT('',(92.0312551752468,97.1939330370281,-163.312640347985));
#490=CARTESIAN_POINT('',(88.0329725075518,97.1939330370281,-157.078762284596));
#491=CARTESIAN_POINT('',(129.797305419129,59.4278827931459,-163.312640347985));
#492=CARTESIAN_POINT('Origin',(129.797305419129,97.1939330370281,-163.312640347985));
#493=CARTESIAN_POINT('Origin',(129.797305419129,97.1939330370281,-163.312640347985));
#494=CARTESIAN_POINT('Origin',(129.797305419129,97.1939330370281,-167.631658833947));
#495=CARTESIAN_POINT('Origin',(129.797305419129,52.6939330370276,-167.631658833947));
#496=CARTESIAN_POINT('Origin',(129.797305419129,97.193933037028,-100.035068255088));
#497=CARTESIAN_POINT('',(85.2973054191289,97.193933037028,-150.035068255088));
#498=CARTESIAN_POINT('Origin',(129.797305419129,97.193933037028,-150.035068255088));
#499=CARTESIAN_POINT('',(85.2973054191289,97.193933037028,-50.035068255088));
#500=CARTESIAN_POINT('',(85.2973054191289,97.193933037028,-100.035068255088));
#501=CARTESIAN_POINT('Origin',(129.797305419129,97.193933037028,-50.035068255088));
#502=CARTESIAN_POINT('Origin',(180.797305419129,97.193933037028,-50.035068255088));
#503=CARTESIAN_POINT('',(78.7973054191289,97.193933037028,-50.035068255088));
#504=CARTESIAN_POINT('Origin',(129.797305419129,97.193933037028,-50.035068255088));
#505=CARTESIAN_POINT('Origin',(129.797305419129,97.193933037028,-100.035068255088));
#506=CARTESIAN_POINT('',(78.7973054191289,97.193933037028,-150.035068255088));
#507=CARTESIAN_POINT('Origin',(129.797305419129,97.193933037028,-150.035068255088));
#508=CARTESIAN_POINT('',(78.7973054191289,97.193933037028,-100.035068255088));
#509=CARTESIAN_POINT('Origin',(174.297305419129,97.193933037028,-150.035068255088));
#510=CARTESIAN_POINT('',(0.,0.,0.));
#511=UNCERTAINTY_MEASURE_WITH_UNIT(LENGTH_MEASURE(0.001),#517,
'DISTANCE_ACCURACY_VALUE',
'Maximum model space distance between geometric entities at asserted c
onnectivities');
#512=UNCERTAINTY_MEASURE_WITH_UNIT(LENGTH_MEASURE(0.001),#517,
'DISTANCE_ACCURACY_VALUE',
'Maximum model space distance between geometric entities at asserted c
onnectivities');
#513=UNCERTAINTY_MEASURE_WITH_UNIT(LENGTH_MEASURE(0.001),#517,
'DISTANCE_ACCURACY_VALUE',
'Maximum model space distance between geometric entities at asserted c
onnectivities');
#514=(
GEOMETRIC_REPRESENTATION_CONTEXT(3)
GLOBAL_UNCERTAINTY_ASSIGNED_CONTEXT((#511))
GLOBAL_UNIT_ASSIGNED_CONTEXT((#517,#518,#519))
REPRESENTATION_CONTEXT('','3D')
);
#515=(
GEOMETRIC_REPRESENTATION_CONTEXT(3)
GLOBAL_UNCERTAINTY_ASSIGNED_CONTEXT((#512))
GLOBAL_UNIT_ASSIGNED_CONTEXT((#517,#518,#519))
REPRESENTATION_CONTEXT('','3D')
);
#516=(
GEOMETRIC_REPRESENTATION_CONTEXT(3)
GLOBAL_UNCERTAINTY_ASSIGNED_CONTEXT((#513))
GLOBAL_UNIT_ASSIGNED_CONTEXT((#517,#518,#519))
REPRESENTATION_CONTEXT('','3D')
);
#517=(
LENGTH_UNIT()
NAMED_UNIT(*)
SI_UNIT(.CENTI.,.METRE.)
);
#518=(
NAMED_UNIT(*)
PLANE_ANGLE_UNIT()
SI_UNIT($,.RADIAN.)
);
#519=(
NAMED_UNIT(*)
SI_UNIT($,.STERADIAN.)
SOLID_ANGLE_UNIT()
);
#520=SHAPE_DEFINITION_REPRESENTATION(#522,#525);
#521=SHAPE_DEFINITION_REPRESENTATION(#523,#526);
#522=PRODUCT_DEFINITION_SHAPE('',$,#528);
#523=PRODUCT_DEFINITION_SHAPE('',$,#529);
#524=PRODUCT_DEFINITION_SHAPE($,$,#18);
#525=SHAPE_REPRESENTATION('',(#279,#325),#514);
#526=SHAPE_REPRESENTATION('',(#280),#515);
#527=PRODUCT_DEFINITION_CONTEXT('part definition',#535,'design');
#528=PRODUCT_DEFINITION('Product','Product',#530,#527);
#529=PRODUCT_DEFINITION('*S0','*S0',#531,#527);
#530=PRODUCT_DEFINITION_FORMATION('',$,#537);
#531=PRODUCT_DEFINITION_FORMATION('',$,#538);
#532=PRODUCT_RELATED_PRODUCT_CATEGORY('Product','Product',(#537));
#533=PRODUCT_RELATED_PRODUCT_CATEGORY('*S0','*S0',(#538));
#534=APPLICATION_PROTOCOL_DEFINITION('international standard',
'automotive_design',2009,#535);
#535=APPLICATION_CONTEXT(
'Core Data for Automotive Mechanical Design Process');
#536=PRODUCT_CONTEXT('part definition',#535,'mechanical');
#537=PRODUCT('Product','Product',$,(#536));
#538=PRODUCT('*S0','*S0',$,(#536));
#539=PRESENTATION_STYLE_ASSIGNMENT((#540));
#540=SURFACE_STYLE_USAGE(.BOTH.,#541);
#541=SURFACE_SIDE_STYLE('',(#542));
#542=SURFACE_STYLE_FILL_AREA(#543);
#543=FILL_AREA_STYLE('',(#544));
#544=FILL_AREA_STYLE_COLOUR('',#545);
#545=COLOUR_RGB('',0.866666666666667,0.866666666666667,0.866666666666667);
ENDSEC;
END-ISO-10303-21;
