ISO-10303-21;
HEADER;
/* Generated by software containing ST-Developer
 * from STEP Tools, Inc. (www.steptools.com) 
 */

FILE_DESCRIPTION(
/* description */ (''),
/* implementation_level */ '2;1');

FILE_NAME(
/* name */ '08225.050C_3D.stp',
/* time_stamp */ '2024-12-11T14:20:13+01:00',
/* author */ ('CAD'),
/* organization */ (''),
/* preprocessor_version */ 'ST-DEVELOPER v20',
/* originating_system */ 'AutoCAD Mechanical',
/* authorisation */ '');

FILE_SCHEMA (('AUTOMOTIVE_DESIGN { 1 0 10303 214 3 1 1 }'));
ENDSEC;

DATA;
#10=MECHANICAL_DESIGN_GEOMETRIC_PRESENTATION_REPRESENTATION('',(#28,#29),
#511);
#11=PRESENTATION_LAYER_ASSIGNMENT('5','H\X\DCLSE',(#30));
#12=PRESENTATION_LAYER_ASSIGNMENT('4','ROHR',(#31));
#13=SHAPE_REPRESENTATION_RELATIONSHIP('SRR','None',#520,#14);
#14=ADVANCED_BREP_SHAPE_REPRESENTATION('',(#30,#31),#509);
#15=ITEM_DEFINED_TRANSFORMATION($,$,#277,#322);
#16=(
REPRESENTATION_RELATIONSHIP($,$,#521,#520)
REPRESENTATION_RELATIONSHIP_WITH_TRANSFORMATION(#15)
SHAPE_REPRESENTATION_RELATIONSHIP()
);
#17=CONTEXT_DEPENDENT_SHAPE_REPRESENTATION(#16,#519);
#18=NEXT_ASSEMBLY_USAGE_OCCURRENCE('B3C','B3C','B3C',#523,#524,'B3C');
#19=CONICAL_SURFACE('',#292,26.1529102240538,0.087266462599716);
#20=CONICAL_SURFACE('',#299,24.6500453458964,0.0872664625996982);
#21=CONICAL_SURFACE('',#312,29.1879687981407,0.593749666710764);
#22=CONICAL_SURFACE('',#314,32.3716365055567,0.977046660084091);
#23=CONICAL_SURFACE('',#316,30.4312418092541,0.593749666710764);
#24=TOROIDAL_SURFACE('',#286,20.,6.5);
#25=TOROIDAL_SURFACE('',#302,15.,10.);
#26=TOROIDAL_SURFACE('',#306,34.4999999999997,9.49999999999966);
#27=TOROIDAL_SURFACE('',#319,34.4999999999995,7.99999999999956);
#28=STYLED_ITEM('',(#534),#30);
#29=STYLED_ITEM('',(#534),#31);
#30=MANIFOLD_SOLID_BREP('1BF0',#274);
#31=MANIFOLD_SOLID_BREP('1BF4',#275);
#32=LINE('',#435,#41);
#33=LINE('',#441,#42);
#34=LINE('',#455,#43);
#35=LINE('',#461,#44);
#36=LINE('',#467,#45);
#37=LINE('',#490,#46);
#38=LINE('',#493,#47);
#39=LINE('',#497,#48);
#40=LINE('',#504,#49);
#41=VECTOR('',#335,31.75);
#42=VECTOR('',#344,38.05);
#43=VECTOR('',#361,26.1529102240538);
#44=VECTOR('',#368,26.5);
#45=VECTOR('',#375,24.6500453458964);
#46=VECTOR('',#404,29.1879687981407);
#47=VECTOR('',#407,32.3716365055567);
#48=VECTOR('',#412,30.4312418092541);
#49=VECTOR('',#423,25.);
#50=CYLINDRICAL_SURFACE('',#281,31.75);
#51=CYLINDRICAL_SURFACE('',#285,38.05);
#52=CYLINDRICAL_SURFACE('',#294,26.5);
#53=CYLINDRICAL_SURFACE('',#321,25.);
#54=FACE_BOUND('',#74,.T.);
#55=FACE_BOUND('',#77,.T.);
#56=FACE_BOUND('',#83,.T.);
#57=FACE_OUTER_BOUND('',#73,.T.);
#58=FACE_OUTER_BOUND('',#75,.T.);
#59=FACE_OUTER_BOUND('',#76,.T.);
#60=FACE_OUTER_BOUND('',#78,.T.);
#61=FACE_OUTER_BOUND('',#79,.T.);
#62=FACE_OUTER_BOUND('',#80,.T.);
#63=FACE_OUTER_BOUND('',#81,.T.);
#64=FACE_OUTER_BOUND('',#82,.T.);
#65=FACE_OUTER_BOUND('',#84,.T.);
#66=FACE_OUTER_BOUND('',#85,.T.);
#67=FACE_OUTER_BOUND('',#86,.T.);
#68=FACE_OUTER_BOUND('',#87,.T.);
#69=FACE_OUTER_BOUND('',#88,.T.);
#70=FACE_OUTER_BOUND('',#89,.T.);
#71=FACE_OUTER_BOUND('',#90,.T.);
#72=FACE_OUTER_BOUND('',#91,.T.);
#73=EDGE_LOOP('',(#181));
#74=EDGE_LOOP('',(#182));
#75=EDGE_LOOP('',(#183,#184,#185,#186));
#76=EDGE_LOOP('',(#187));
#77=EDGE_LOOP('',(#188));
#78=EDGE_LOOP('',(#189,#190,#191,#192));
#79=EDGE_LOOP('',(#193,#194,#195,#196,#197,#198));
#80=EDGE_LOOP('',(#199,#200,#201,#202,#203));
#81=EDGE_LOOP('',(#204,#205,#206,#207,#208,#209));
#82=EDGE_LOOP('',(#210));
#83=EDGE_LOOP('',(#211));
#84=EDGE_LOOP('',(#212,#213,#214,#215,#216));
#85=EDGE_LOOP('',(#217,#218,#219,#220,#221,#222));
#86=EDGE_LOOP('',(#223,#224,#225,#226,#227,#228));
#87=EDGE_LOOP('',(#229,#230,#231,#232,#233));
#88=EDGE_LOOP('',(#234,#235,#236,#237));
#89=EDGE_LOOP('',(#238,#239,#240,#241,#242));
#90=EDGE_LOOP('',(#243,#244,#245,#246,#247,#248));
#91=EDGE_LOOP('',(#249,#250,#251,#252,#253,#254));
#92=CIRCLE('',#279,38.05);
#93=CIRCLE('',#280,31.75);
#94=CIRCLE('',#282,31.75);
#95=CIRCLE('',#284,38.05);
#96=CIRCLE('',#287,26.4752655375963);
#97=CIRCLE('',#288,26.4752655375963);
#98=CIRCLE('',#289,6.5);
#99=CIRCLE('',#290,26.5);
#100=CIRCLE('',#291,26.5);
#101=CIRCLE('',#293,25.8058204481076);
#102=CIRCLE('',#295,26.5);
#103=CIRCLE('',#296,26.5);
#104=CIRCLE('',#298,24.3000906917928);
#105=CIRCLE('',#300,24.9619469809174);
#106=CIRCLE('',#301,24.9619469809174);
#107=CIRCLE('',#303,10.);
#108=CIRCLE('',#304,25.);
#109=CIRCLE('',#305,25.);
#110=CIRCLE('',#307,25.);
#111=CIRCLE('',#308,9.49999999999966);
#112=CIRCLE('',#309,26.6259375962812);
#113=CIRCLE('',#310,26.6259375962812);
#114=CIRCLE('',#311,25.);
#115=CIRCLE('',#313,31.75);
#116=CIRCLE('',#315,32.9932730111134);
#117=CIRCLE('',#317,27.8692106073947);
#118=CIRCLE('',#318,27.8692106073947);
#119=CIRCLE('',#320,7.99999999999956);
#120=VERTEX_POINT('',#429);
#121=VERTEX_POINT('',#431);
#122=VERTEX_POINT('',#434);
#123=VERTEX_POINT('',#438);
#124=VERTEX_POINT('',#443);
#125=VERTEX_POINT('',#444);
#126=VERTEX_POINT('',#447);
#127=VERTEX_POINT('',#449);
#128=VERTEX_POINT('',#453);
#129=VERTEX_POINT('',#457);
#130=VERTEX_POINT('',#458);
#131=VERTEX_POINT('',#463);
#132=VERTEX_POINT('',#466);
#133=VERTEX_POINT('',#468);
#134=VERTEX_POINT('',#472);
#135=VERTEX_POINT('',#474);
#136=VERTEX_POINT('',#478);
#137=VERTEX_POINT('',#479);
#138=VERTEX_POINT('',#481);
#139=VERTEX_POINT('',#483);
#140=VERTEX_POINT('',#488);
#141=VERTEX_POINT('',#492);
#142=VERTEX_POINT('',#496);
#143=VERTEX_POINT('',#498);
#144=EDGE_CURVE('',#120,#120,#92,.T.);
#145=EDGE_CURVE('',#121,#121,#93,.T.);
#146=EDGE_CURVE('',#121,#122,#32,.T.);
#147=EDGE_CURVE('',#122,#122,#94,.T.);
#148=EDGE_CURVE('',#123,#123,#95,.T.);
#149=EDGE_CURVE('',#120,#123,#33,.T.);
#150=EDGE_CURVE('',#124,#125,#96,.T.);
#151=EDGE_CURVE('',#125,#124,#97,.T.);
#152=EDGE_CURVE('',#124,#126,#98,.T.);
#153=EDGE_CURVE('',#126,#127,#99,.T.);
#154=EDGE_CURVE('',#127,#126,#100,.T.);
#155=EDGE_CURVE('',#128,#128,#101,.T.);
#156=EDGE_CURVE('',#128,#125,#34,.T.);
#157=EDGE_CURVE('',#129,#130,#102,.T.);
#158=EDGE_CURVE('',#130,#129,#103,.T.);
#159=EDGE_CURVE('',#129,#127,#35,.T.);
#160=EDGE_CURVE('',#131,#131,#104,.T.);
#161=EDGE_CURVE('',#131,#132,#36,.T.);
#162=EDGE_CURVE('',#133,#132,#105,.T.);
#163=EDGE_CURVE('',#132,#133,#106,.T.);
#164=EDGE_CURVE('',#133,#134,#107,.T.);
#165=EDGE_CURVE('',#134,#135,#108,.T.);
#166=EDGE_CURVE('',#135,#134,#109,.T.);
#167=EDGE_CURVE('',#136,#137,#110,.T.);
#168=EDGE_CURVE('',#137,#138,#111,.T.);
#169=EDGE_CURVE('',#139,#138,#112,.T.);
#170=EDGE_CURVE('',#138,#139,#113,.T.);
#171=EDGE_CURVE('',#137,#136,#114,.T.);
#172=EDGE_CURVE('',#140,#140,#115,.T.);
#173=EDGE_CURVE('',#140,#139,#37,.T.);
#174=EDGE_CURVE('',#140,#141,#38,.T.);
#175=EDGE_CURVE('',#141,#141,#116,.T.);
#176=EDGE_CURVE('',#141,#142,#39,.T.);
#177=EDGE_CURVE('',#143,#142,#117,.T.);
#178=EDGE_CURVE('',#142,#143,#118,.T.);
#179=EDGE_CURVE('',#130,#143,#119,.T.);
#180=EDGE_CURVE('',#136,#135,#40,.T.);
#181=ORIENTED_EDGE('',*,*,#144,.T.);
#182=ORIENTED_EDGE('',*,*,#145,.F.);
#183=ORIENTED_EDGE('',*,*,#145,.T.);
#184=ORIENTED_EDGE('',*,*,#146,.T.);
#185=ORIENTED_EDGE('',*,*,#147,.F.);
#186=ORIENTED_EDGE('',*,*,#146,.F.);
#187=ORIENTED_EDGE('',*,*,#148,.F.);
#188=ORIENTED_EDGE('',*,*,#147,.T.);
#189=ORIENTED_EDGE('',*,*,#144,.F.);
#190=ORIENTED_EDGE('',*,*,#149,.T.);
#191=ORIENTED_EDGE('',*,*,#148,.T.);
#192=ORIENTED_EDGE('',*,*,#149,.F.);
#193=ORIENTED_EDGE('',*,*,#150,.T.);
#194=ORIENTED_EDGE('',*,*,#151,.T.);
#195=ORIENTED_EDGE('',*,*,#152,.T.);
#196=ORIENTED_EDGE('',*,*,#153,.T.);
#197=ORIENTED_EDGE('',*,*,#154,.T.);
#198=ORIENTED_EDGE('',*,*,#152,.F.);
#199=ORIENTED_EDGE('',*,*,#155,.F.);
#200=ORIENTED_EDGE('',*,*,#156,.T.);
#201=ORIENTED_EDGE('',*,*,#150,.F.);
#202=ORIENTED_EDGE('',*,*,#151,.F.);
#203=ORIENTED_EDGE('',*,*,#156,.F.);
#204=ORIENTED_EDGE('',*,*,#157,.T.);
#205=ORIENTED_EDGE('',*,*,#158,.T.);
#206=ORIENTED_EDGE('',*,*,#159,.T.);
#207=ORIENTED_EDGE('',*,*,#153,.F.);
#208=ORIENTED_EDGE('',*,*,#154,.F.);
#209=ORIENTED_EDGE('',*,*,#159,.F.);
#210=ORIENTED_EDGE('',*,*,#155,.T.);
#211=ORIENTED_EDGE('',*,*,#160,.F.);
#212=ORIENTED_EDGE('',*,*,#160,.T.);
#213=ORIENTED_EDGE('',*,*,#161,.T.);
#214=ORIENTED_EDGE('',*,*,#162,.F.);
#215=ORIENTED_EDGE('',*,*,#163,.F.);
#216=ORIENTED_EDGE('',*,*,#161,.F.);
#217=ORIENTED_EDGE('',*,*,#163,.T.);
#218=ORIENTED_EDGE('',*,*,#164,.T.);
#219=ORIENTED_EDGE('',*,*,#165,.T.);
#220=ORIENTED_EDGE('',*,*,#166,.T.);
#221=ORIENTED_EDGE('',*,*,#164,.F.);
#222=ORIENTED_EDGE('',*,*,#162,.T.);
#223=ORIENTED_EDGE('',*,*,#167,.T.);
#224=ORIENTED_EDGE('',*,*,#168,.T.);
#225=ORIENTED_EDGE('',*,*,#169,.F.);
#226=ORIENTED_EDGE('',*,*,#170,.F.);
#227=ORIENTED_EDGE('',*,*,#168,.F.);
#228=ORIENTED_EDGE('',*,*,#171,.T.);
#229=ORIENTED_EDGE('',*,*,#172,.F.);
#230=ORIENTED_EDGE('',*,*,#173,.T.);
#231=ORIENTED_EDGE('',*,*,#169,.T.);
#232=ORIENTED_EDGE('',*,*,#170,.T.);
#233=ORIENTED_EDGE('',*,*,#173,.F.);
#234=ORIENTED_EDGE('',*,*,#172,.T.);
#235=ORIENTED_EDGE('',*,*,#174,.T.);
#236=ORIENTED_EDGE('',*,*,#175,.F.);
#237=ORIENTED_EDGE('',*,*,#174,.F.);
#238=ORIENTED_EDGE('',*,*,#175,.T.);
#239=ORIENTED_EDGE('',*,*,#176,.T.);
#240=ORIENTED_EDGE('',*,*,#177,.F.);
#241=ORIENTED_EDGE('',*,*,#178,.F.);
#242=ORIENTED_EDGE('',*,*,#176,.F.);
#243=ORIENTED_EDGE('',*,*,#157,.F.);
#244=ORIENTED_EDGE('',*,*,#158,.F.);
#245=ORIENTED_EDGE('',*,*,#179,.T.);
#246=ORIENTED_EDGE('',*,*,#177,.T.);
#247=ORIENTED_EDGE('',*,*,#178,.T.);
#248=ORIENTED_EDGE('',*,*,#179,.F.);
#249=ORIENTED_EDGE('',*,*,#167,.F.);
#250=ORIENTED_EDGE('',*,*,#180,.T.);
#251=ORIENTED_EDGE('',*,*,#165,.F.);
#252=ORIENTED_EDGE('',*,*,#166,.F.);
#253=ORIENTED_EDGE('',*,*,#180,.F.);
#254=ORIENTED_EDGE('',*,*,#171,.F.);
#255=PLANE('',#278);
#256=PLANE('',#283);
#257=PLANE('',#297);
#258=ADVANCED_FACE('',(#57,#54),#255,.T.);
#259=ADVANCED_FACE('',(#58),#50,.F.);
#260=ADVANCED_FACE('',(#59,#55),#256,.T.);
#261=ADVANCED_FACE('',(#60),#51,.T.);
#262=ADVANCED_FACE('',(#61),#24,.T.);
#263=ADVANCED_FACE('',(#62),#19,.T.);
#264=ADVANCED_FACE('',(#63),#52,.T.);
#265=ADVANCED_FACE('',(#64,#56),#257,.T.);
#266=ADVANCED_FACE('',(#65),#20,.F.);
#267=ADVANCED_FACE('',(#66),#25,.F.);
#268=ADVANCED_FACE('',(#67),#26,.T.);
#269=ADVANCED_FACE('',(#68),#21,.F.);
#270=ADVANCED_FACE('',(#69),#22,.T.);
#271=ADVANCED_FACE('',(#70),#23,.T.);
#272=ADVANCED_FACE('',(#71),#27,.F.);
#273=ADVANCED_FACE('',(#72),#53,.F.);
#274=CLOSED_SHELL('',(#258,#259,#260,#261));
#275=CLOSED_SHELL('',(#262,#263,#264,#265,#266,#267,#268,#269,#270,#271,
#272,#273));
#276=AXIS2_PLACEMENT_3D('',#426,#323,#324);
#277=AXIS2_PLACEMENT_3D('',#427,#325,#326);
#278=AXIS2_PLACEMENT_3D('',#428,#327,#328);
#279=AXIS2_PLACEMENT_3D('',#430,#329,#330);
#280=AXIS2_PLACEMENT_3D('',#432,#331,#332);
#281=AXIS2_PLACEMENT_3D('',#433,#333,#334);
#282=AXIS2_PLACEMENT_3D('',#436,#336,#337);
#283=AXIS2_PLACEMENT_3D('',#437,#338,#339);
#284=AXIS2_PLACEMENT_3D('',#439,#340,#341);
#285=AXIS2_PLACEMENT_3D('',#440,#342,#343);
#286=AXIS2_PLACEMENT_3D('',#442,#345,#346);
#287=AXIS2_PLACEMENT_3D('',#445,#347,#348);
#288=AXIS2_PLACEMENT_3D('',#446,#349,#350);
#289=AXIS2_PLACEMENT_3D('',#448,#351,#352);
#290=AXIS2_PLACEMENT_3D('',#450,#353,#354);
#291=AXIS2_PLACEMENT_3D('',#451,#355,#356);
#292=AXIS2_PLACEMENT_3D('',#452,#357,#358);
#293=AXIS2_PLACEMENT_3D('',#454,#359,#360);
#294=AXIS2_PLACEMENT_3D('',#456,#362,#363);
#295=AXIS2_PLACEMENT_3D('',#459,#364,#365);
#296=AXIS2_PLACEMENT_3D('',#460,#366,#367);
#297=AXIS2_PLACEMENT_3D('',#462,#369,#370);
#298=AXIS2_PLACEMENT_3D('',#464,#371,#372);
#299=AXIS2_PLACEMENT_3D('',#465,#373,#374);
#300=AXIS2_PLACEMENT_3D('',#469,#376,#377);
#301=AXIS2_PLACEMENT_3D('',#470,#378,#379);
#302=AXIS2_PLACEMENT_3D('',#471,#380,#381);
#303=AXIS2_PLACEMENT_3D('',#473,#382,#383);
#304=AXIS2_PLACEMENT_3D('',#475,#384,#385);
#305=AXIS2_PLACEMENT_3D('',#476,#386,#387);
#306=AXIS2_PLACEMENT_3D('',#477,#388,#389);
#307=AXIS2_PLACEMENT_3D('',#480,#390,#391);
#308=AXIS2_PLACEMENT_3D('',#482,#392,#393);
#309=AXIS2_PLACEMENT_3D('',#484,#394,#395);
#310=AXIS2_PLACEMENT_3D('',#485,#396,#397);
#311=AXIS2_PLACEMENT_3D('',#486,#398,#399);
#312=AXIS2_PLACEMENT_3D('',#487,#400,#401);
#313=AXIS2_PLACEMENT_3D('',#489,#402,#403);
#314=AXIS2_PLACEMENT_3D('',#491,#405,#406);
#315=AXIS2_PLACEMENT_3D('',#494,#408,#409);
#316=AXIS2_PLACEMENT_3D('',#495,#410,#411);
#317=AXIS2_PLACEMENT_3D('',#499,#413,#414);
#318=AXIS2_PLACEMENT_3D('',#500,#415,#416);
#319=AXIS2_PLACEMENT_3D('',#501,#417,#418);
#320=AXIS2_PLACEMENT_3D('',#502,#419,#420);
#321=AXIS2_PLACEMENT_3D('',#503,#421,#422);
#322=AXIS2_PLACEMENT_3D('',#505,#424,#425);
#323=DIRECTION('axis',(0.,0.,1.));
#324=DIRECTION('refdir',(1.,0.,0.));
#325=DIRECTION('axis',(0.,0.,1.));
#326=DIRECTION('refdir',(1.,0.,0.));
#327=DIRECTION('center_axis',(0.,-6.12323399573677E-17,-1.));
#328=DIRECTION('ref_axis',(0.,1.,-6.12323399573677E-17));
#329=DIRECTION('center_axis',(0.,-6.12323399573677E-17,-1.));
#330=DIRECTION('ref_axis',(1.,0.,0.));
#331=DIRECTION('center_axis',(0.,-6.12323399573677E-17,-1.));
#332=DIRECTION('ref_axis',(1.,0.,0.));
#333=DIRECTION('center_axis',(0.,-6.12323399573677E-17,-1.));
#334=DIRECTION('ref_axis',(1.,0.,0.));
#335=DIRECTION('',(0.,6.12323399573677E-17,1.));
#336=DIRECTION('center_axis',(0.,-6.12323399573677E-17,-1.));
#337=DIRECTION('ref_axis',(1.,0.,0.));
#338=DIRECTION('center_axis',(0.,6.12323399573677E-17,1.));
#339=DIRECTION('ref_axis',(0.,-1.,6.12323399573677E-17));
#340=DIRECTION('center_axis',(0.,-6.12323399573677E-17,-1.));
#341=DIRECTION('ref_axis',(1.,0.,0.));
#342=DIRECTION('center_axis',(0.,-6.12323399573677E-17,-1.));
#343=DIRECTION('ref_axis',(1.,0.,0.));
#344=DIRECTION('',(0.,6.12323399573677E-17,1.));
#345=DIRECTION('center_axis',(0.,-6.12323399573677E-17,-1.));
#346=DIRECTION('ref_axis',(0.,1.,0.));
#347=DIRECTION('center_axis',(0.,6.12323399573677E-17,1.));
#348=DIRECTION('ref_axis',(-1.,-1.07351933411371E-15,6.57341008172575E-32));
#349=DIRECTION('center_axis',(0.,6.12323399573677E-17,1.));
#350=DIRECTION('ref_axis',(-1.,-1.07351933411371E-15,6.57341008172575E-32));
#351=DIRECTION('center_axis',(-1.,0.,0.));
#352=DIRECTION('ref_axis',(0.,-1.,6.12323399573677E-17));
#353=DIRECTION('center_axis',(0.,-6.12323399573677E-17,-1.));
#354=DIRECTION('ref_axis',(-1.,-1.07251733699638E-15,6.56727461891329E-32));
#355=DIRECTION('center_axis',(0.,-6.12323399573677E-17,-1.));
#356=DIRECTION('ref_axis',(-1.,-1.07251733699638E-15,6.56727461891329E-32));
#357=DIRECTION('center_axis',(0.,6.12323399573677E-17,1.));
#358=DIRECTION('ref_axis',(1.,0.,0.));
#359=DIRECTION('center_axis',(0.,-6.12323399573677E-17,-1.));
#360=DIRECTION('ref_axis',(1.,0.,0.));
#361=DIRECTION('',(-0.0871557427476576,7.16728325556039E-17,0.996194698091746));
#362=DIRECTION('center_axis',(0.,-6.12323399573677E-17,-1.));
#363=DIRECTION('ref_axis',(1.,0.,0.));
#364=DIRECTION('center_axis',(0.,-6.12323399573677E-17,-1.));
#365=DIRECTION('ref_axis',(1.,0.,0.));
#366=DIRECTION('center_axis',(0.,-6.12323399573677E-17,-1.));
#367=DIRECTION('ref_axis',(1.,0.,0.));
#368=DIRECTION('',(0.,-6.12323399573677E-17,-1.));
#369=DIRECTION('center_axis',(0.,-6.12323399573677E-17,-1.));
#370=DIRECTION('ref_axis',(0.,1.,-6.12323399573677E-17));
#371=DIRECTION('center_axis',(0.,-6.12323399573677E-17,-1.));
#372=DIRECTION('ref_axis',(1.,0.,0.));
#373=DIRECTION('center_axis',(0.,6.12323399573677E-17,1.));
#374=DIRECTION('ref_axis',(1.,0.,0.));
#375=DIRECTION('',(-0.08715574274764,7.16728325556018E-17,0.996194698091747));
#376=DIRECTION('center_axis',(0.,-6.12323399573677E-17,-1.));
#377=DIRECTION('ref_axis',(-1.,0.,0.));
#378=DIRECTION('center_axis',(0.,-6.12323399573677E-17,-1.));
#379=DIRECTION('ref_axis',(-1.,0.,0.));
#380=DIRECTION('center_axis',(0.,-6.12323399573677E-17,-1.));
#381=DIRECTION('ref_axis',(0.,1.,0.));
#382=DIRECTION('center_axis',(-1.,0.,0.));
#383=DIRECTION('ref_axis',(0.,-1.,6.12323399573677E-17));
#384=DIRECTION('center_axis',(0.,6.12323399573677E-17,1.));
#385=DIRECTION('ref_axis',(-1.,-1.22464679914735E-16,7.49879891330929E-33));
#386=DIRECTION('center_axis',(0.,6.12323399573677E-17,1.));
#387=DIRECTION('ref_axis',(-1.,-1.22464679914735E-16,7.49879891330929E-33));
#388=DIRECTION('center_axis',(0.,6.12323399573677E-17,1.));
#389=DIRECTION('ref_axis',(0.,1.,0.));
#390=DIRECTION('center_axis',(0.,-6.12323399573677E-17,-1.));
#391=DIRECTION('ref_axis',(1.,0.,0.));
#392=DIRECTION('center_axis',(1.,0.,0.));
#393=DIRECTION('ref_axis',(0.,-1.,6.12323399573677E-17));
#394=DIRECTION('center_axis',(0.,-6.12323399573677E-17,-1.));
#395=DIRECTION('ref_axis',(1.,0.,0.));
#396=DIRECTION('center_axis',(0.,-6.12323399573677E-17,-1.));
#397=DIRECTION('ref_axis',(1.,0.,0.));
#398=DIRECTION('center_axis',(0.,-6.12323399573677E-17,-1.));
#399=DIRECTION('ref_axis',(1.,0.,0.));
#400=DIRECTION('center_axis',(0.,6.12323399573677E-17,1.));
#401=DIRECTION('ref_axis',(1.,0.,0.));
#402=DIRECTION('center_axis',(0.,-6.12323399573677E-17,-1.));
#403=DIRECTION('ref_axis',(1.,0.,0.));
#404=DIRECTION('',(0.559472855001057,-1.19268007892901E-16,-0.828848674075652));
#405=DIRECTION('center_axis',(0.,-6.12323399573677E-17,-1.));
#406=DIRECTION('ref_axis',(1.,0.,0.));
#407=DIRECTION('',(-0.828848674075629,6.72468555140788E-17,-0.559472855001091));
#408=DIRECTION('center_axis',(0.,-6.12323399573677E-17,-1.));
#409=DIRECTION('ref_axis',(1.,0.,0.));
#410=DIRECTION('center_axis',(0.,6.12323399573677E-17,1.));
#411=DIRECTION('ref_axis',(1.,0.,0.));
#412=DIRECTION('',(0.559472855001057,-1.19268007892901E-16,-0.828848674075652));
#413=DIRECTION('center_axis',(0.,-6.12323399573677E-17,-1.));
#414=DIRECTION('ref_axis',(1.,0.,0.));
#415=DIRECTION('center_axis',(0.,-6.12323399573677E-17,-1.));
#416=DIRECTION('ref_axis',(1.,0.,0.));
#417=DIRECTION('center_axis',(0.,6.12323399573677E-17,1.));
#418=DIRECTION('ref_axis',(0.,1.,0.));
#419=DIRECTION('center_axis',(1.,0.,0.));
#420=DIRECTION('ref_axis',(0.,-1.,6.12323399573677E-17));
#421=DIRECTION('center_axis',(0.,-6.12323399573677E-17,-1.));
#422=DIRECTION('ref_axis',(1.,0.,0.));
#423=DIRECTION('',(0.,-6.12323399573677E-17,-1.));
#424=DIRECTION('',(0.,0.,1.));
#425=DIRECTION('',(1.,0.,0.));
#426=CARTESIAN_POINT('',(0.,0.,0.));
#427=CARTESIAN_POINT('',(0.,0.,0.));
#428=CARTESIAN_POINT('Origin',(161.547305419129,97.193933037028,-150.035068255088));
#429=CARTESIAN_POINT('',(91.7473054191289,97.193933037028,-150.035068255088));
#430=CARTESIAN_POINT('Origin',(129.797305419129,97.193933037028,-150.035068255088));
#431=CARTESIAN_POINT('',(98.0473054191289,97.193933037028,-150.035068255088));
#432=CARTESIAN_POINT('Origin',(129.797305419129,97.193933037028,-150.035068255088));
#433=CARTESIAN_POINT('Origin',(129.797305419129,97.193933037028,-100.035068255088));
#434=CARTESIAN_POINT('',(98.0473054191289,97.193933037028,-50.035068255088));
#435=CARTESIAN_POINT('',(98.0473054191289,97.193933037028,-100.035068255088));
#436=CARTESIAN_POINT('Origin',(129.797305419129,97.193933037028,-50.035068255088));
#437=CARTESIAN_POINT('Origin',(167.847305419129,97.193933037028,-50.035068255088));
#438=CARTESIAN_POINT('',(91.7473054191289,97.193933037028,-50.035068255088));
#439=CARTESIAN_POINT('Origin',(129.797305419129,97.193933037028,-50.035068255088));
#440=CARTESIAN_POINT('Origin',(129.797305419129,97.193933037028,-100.035068255088));
#441=CARTESIAN_POINT('',(91.7473054191289,97.193933037028,-100.035068255088));
#442=CARTESIAN_POINT('Origin',(129.797305419129,97.1939330370281,-251.816763540545));
#443=CARTESIAN_POINT('',(129.797305419129,70.7186674994318,-252.383275868405));
#444=CARTESIAN_POINT('',(103.322039881533,97.1939330370281,-252.383275868405));
#445=CARTESIAN_POINT('Origin',(129.797305419129,97.1939330370281,-252.383275868405));
#446=CARTESIAN_POINT('Origin',(129.797305419129,97.1939330370281,-252.383275868405));
#447=CARTESIAN_POINT('',(129.797305419129,70.6939330370281,-251.816763540545));
#448=CARTESIAN_POINT('Origin',(129.797305419129,77.1939330370281,-251.816763540545));
#449=CARTESIAN_POINT('',(103.297305419129,97.1939330370281,-251.816763540545));
#450=CARTESIAN_POINT('Origin',(129.797305419129,97.1939330370281,-251.816763540545));
#451=CARTESIAN_POINT('Origin',(129.797305419129,97.1939330370281,-251.816763540545));
#452=CARTESIAN_POINT('Origin',(129.797305419129,97.1939330370281,-256.067813962269));
#453=CARTESIAN_POINT('',(103.991484971021,97.1939330370281,-260.035068255088));
#454=CARTESIAN_POINT('Origin',(129.797305419129,97.1939330370281,-260.035068255088));
#455=CARTESIAN_POINT('',(103.644395195075,97.1939330370281,-256.067813962269));
#456=CARTESIAN_POINT('Origin',(129.797305419129,97.1939330370281,-186.488166096876));
#457=CARTESIAN_POINT('',(103.297305419129,97.1939330370281,-162.941263938663));
#458=CARTESIAN_POINT('',(129.797305419129,70.6939330370281,-162.941263938663));
#459=CARTESIAN_POINT('Origin',(129.797305419129,97.1939330370281,-162.941263938663));
#460=CARTESIAN_POINT('Origin',(129.797305419129,97.1939330370281,-162.941263938663));
#461=CARTESIAN_POINT('',(103.297305419129,97.1939330370281,-186.488166096876));
#462=CARTESIAN_POINT('Origin',(154.097396110922,97.1939330370281,-260.035068255088));
#463=CARTESIAN_POINT('',(105.497214727336,97.1939330370281,-260.035068255088));
#464=CARTESIAN_POINT('Origin',(129.797305419129,97.1939330370281,-260.035068255088));
#465=CARTESIAN_POINT('Origin',(129.797305419129,97.1939330370281,-256.035068255088));
#466=CARTESIAN_POINT('',(104.835358438211,97.1939330370281,-252.47001625348));
#467=CARTESIAN_POINT('',(105.147260073232,97.1939330370281,-256.035068255088));
#468=CARTESIAN_POINT('',(129.797305419129,72.2319860561106,-252.47001625348));
#469=CARTESIAN_POINT('Origin',(129.797305419129,97.1939330370281,-252.47001625348));
#470=CARTESIAN_POINT('Origin',(129.797305419129,97.1939330370281,-252.47001625348));
#471=CARTESIAN_POINT('Origin',(129.797305419129,97.1939330370281,-251.598458826003));
#472=CARTESIAN_POINT('',(129.797305419129,72.1939330370281,-251.598458826003));
#473=CARTESIAN_POINT('Origin',(129.797305419129,82.1939330370281,-251.598458826003));
#474=CARTESIAN_POINT('',(104.797305419129,97.1939330370281,-251.598458826003));
#475=CARTESIAN_POINT('Origin',(129.797305419129,97.1939330370281,-251.598458826003));
#476=CARTESIAN_POINT('Origin',(129.797305419129,97.1939330370281,-251.598458826003));
#477=CARTESIAN_POINT('Origin',(129.797305419129,97.1939330370281,-162.941263938663));
#478=CARTESIAN_POINT('',(104.797305419129,97.1939330370281,-162.941263938663));
#479=CARTESIAN_POINT('',(129.797305419129,72.1939330370281,-162.941263938663));
#480=CARTESIAN_POINT('Origin',(129.797305419129,97.1939330370281,-162.941263938663));
#481=CARTESIAN_POINT('',(129.797305419129,70.5679954407469,-157.626271816153));
#482=CARTESIAN_POINT('Origin',(129.797305419129,62.6939330370284,-162.941263938663));
#483=CARTESIAN_POINT('',(103.171367822848,97.1939330370281,-157.626271816153));
#484=CARTESIAN_POINT('Origin',(129.797305419129,97.1939330370281,-157.626271816153));
#485=CARTESIAN_POINT('Origin',(129.797305419129,97.1939330370281,-157.626271816153));
#486=CARTESIAN_POINT('Origin',(129.797305419129,97.1939330370281,-162.941263938663));
#487=CARTESIAN_POINT('Origin',(129.797305419129,97.1939330370281,-153.83067003562));
#488=CARTESIAN_POINT('',(98.0473054191289,97.1939330370281,-150.035068255088));
#489=CARTESIAN_POINT('Origin',(129.797305419129,97.1939330370281,-150.035068255088));
#490=CARTESIAN_POINT('',(100.609336620988,97.1939330370281,-153.83067003562));
#491=CARTESIAN_POINT('Origin',(129.797305419129,97.1939330370281,-150.454672896339));
#492=CARTESIAN_POINT('',(96.8040324080155,97.1939330370281,-150.87427753759));
#493=CARTESIAN_POINT('',(97.4256689135722,97.1939330370281,-150.454672896339));
#494=CARTESIAN_POINT('Origin',(129.797305419129,97.1939330370281,-150.87427753759));
#495=CARTESIAN_POINT('Origin',(129.797305419129,97.1939330370281,-154.669879318122));
#496=CARTESIAN_POINT('',(101.928094811734,97.1939330370281,-158.465481098654));
#497=CARTESIAN_POINT('',(99.3660636098748,97.1939330370281,-154.669879318122));
#498=CARTESIAN_POINT('',(129.797305419129,69.3247224296334,-158.465481098654));
#499=CARTESIAN_POINT('Origin',(129.797305419129,97.1939330370281,-158.465481098654));
#500=CARTESIAN_POINT('Origin',(129.797305419129,97.1939330370281,-158.465481098654));
#501=CARTESIAN_POINT('Origin',(129.797305419129,97.1939330370281,-162.941263938663));
#502=CARTESIAN_POINT('Origin',(129.797305419129,62.6939330370286,-162.941263938663));
#503=CARTESIAN_POINT('Origin',(129.797305419129,97.1939330370281,-186.488166096876));
#504=CARTESIAN_POINT('',(104.797305419129,97.1939330370281,-186.488166096876));
#505=CARTESIAN_POINT('',(0.,0.,0.));
#506=UNCERTAINTY_MEASURE_WITH_UNIT(LENGTH_MEASURE(0.001),#512,
'DISTANCE_ACCURACY_VALUE',
'Maximum model space distance between geometric entities at asserted c
onnectivities');
#507=UNCERTAINTY_MEASURE_WITH_UNIT(LENGTH_MEASURE(0.001),#512,
'DISTANCE_ACCURACY_VALUE',
'Maximum model space distance between geometric entities at asserted c
onnectivities');
#508=UNCERTAINTY_MEASURE_WITH_UNIT(LENGTH_MEASURE(0.001),#512,
'DISTANCE_ACCURACY_VALUE',
'Maximum model space distance between geometric entities at asserted c
onnectivities');
#509=(
GEOMETRIC_REPRESENTATION_CONTEXT(3)
GLOBAL_UNCERTAINTY_ASSIGNED_CONTEXT((#506))
GLOBAL_UNIT_ASSIGNED_CONTEXT((#512,#513,#514))
REPRESENTATION_CONTEXT('','3D')
);
#510=(
GEOMETRIC_REPRESENTATION_CONTEXT(3)
GLOBAL_UNCERTAINTY_ASSIGNED_CONTEXT((#507))
GLOBAL_UNIT_ASSIGNED_CONTEXT((#512,#513,#514))
REPRESENTATION_CONTEXT('','3D')
);
#511=(
GEOMETRIC_REPRESENTATION_CONTEXT(3)
GLOBAL_UNCERTAINTY_ASSIGNED_CONTEXT((#508))
GLOBAL_UNIT_ASSIGNED_CONTEXT((#512,#513,#514))
REPRESENTATION_CONTEXT('','3D')
);
#512=(
LENGTH_UNIT()
NAMED_UNIT(*)
SI_UNIT(.CENTI.,.METRE.)
);
#513=(
NAMED_UNIT(*)
PLANE_ANGLE_UNIT()
SI_UNIT($,.RADIAN.)
);
#514=(
NAMED_UNIT(*)
SI_UNIT($,.STERADIAN.)
SOLID_ANGLE_UNIT()
);
#515=SHAPE_DEFINITION_REPRESENTATION(#517,#520);
#516=SHAPE_DEFINITION_REPRESENTATION(#518,#521);
#517=PRODUCT_DEFINITION_SHAPE('',$,#523);
#518=PRODUCT_DEFINITION_SHAPE('',$,#524);
#519=PRODUCT_DEFINITION_SHAPE($,$,#18);
#520=SHAPE_REPRESENTATION('',(#276,#322),#509);
#521=SHAPE_REPRESENTATION('',(#277),#510);
#522=PRODUCT_DEFINITION_CONTEXT('part definition',#530,'design');
#523=PRODUCT_DEFINITION('Product','Product',#525,#522);
#524=PRODUCT_DEFINITION('*S0','*S0',#526,#522);
#525=PRODUCT_DEFINITION_FORMATION('',$,#532);
#526=PRODUCT_DEFINITION_FORMATION('',$,#533);
#527=PRODUCT_RELATED_PRODUCT_CATEGORY('Product','Product',(#532));
#528=PRODUCT_RELATED_PRODUCT_CATEGORY('*S0','*S0',(#533));
#529=APPLICATION_PROTOCOL_DEFINITION('international standard',
'automotive_design',2009,#530);
#530=APPLICATION_CONTEXT(
'Core Data for Automotive Mechanical Design Process');
#531=PRODUCT_CONTEXT('part definition',#530,'mechanical');
#532=PRODUCT('Product','Product',$,(#531));
#533=PRODUCT('*S0','*S0',$,(#531));
#534=PRESENTATION_STYLE_ASSIGNMENT((#535));
#535=SURFACE_STYLE_USAGE(.BOTH.,#536);
#536=SURFACE_SIDE_STYLE('',(#537));
#537=SURFACE_STYLE_FILL_AREA(#538);
#538=FILL_AREA_STYLE('',(#539));
#539=FILL_AREA_STYLE_COLOUR('',#540);
#540=COLOUR_RGB('',0.866666666666667,0.866666666666667,0.866666666666667);
ENDSEC;
END-ISO-10303-21;
