ISO-10303-21;
HEADER;
/* Generated by software containing ST-Developer
 * from STEP Tools, Inc. (www.steptools.com) 
 */

FILE_DESCRIPTION(
/* description */ (''),
/* implementation_level */ '2;1');

FILE_NAME(
/* name */ '08225.040X_3D.stp',
/* time_stamp */ '2024-12-11T14:20:11+01:00',
/* author */ ('CAD'),
/* organization */ (''),
/* preprocessor_version */ 'ST-DEVELOPER v20',
/* originating_system */ 'AutoCAD Mechanical',
/* authorisation */ '');

FILE_SCHEMA (('AUTOMOTIVE_DESIGN { 1 0 10303 214 3 1 1 }'));
ENDSEC;

DATA;
#10=MECHANICAL_DESIGN_GEOMETRIC_PRESENTATION_REPRESENTATION('',(#19,#20),
#529);
#11=PRESENTATION_LAYER_ASSIGNMENT('4','ROHR',(#21));
#12=PRESENTATION_LAYER_ASSIGNMENT('5','H\X\DCLSE',(#22));
#13=SHAPE_REPRESENTATION_RELATIONSHIP('SRR','None',#538,#14);
#14=ADVANCED_BREP_SHAPE_REPRESENTATION('',(#21,#22),#527);
#15=ITEM_DEFINED_TRANSFORMATION($,$,#274,#318);
#16=(
REPRESENTATION_RELATIONSHIP($,$,#539,#538)
REPRESENTATION_RELATIONSHIP_WITH_TRANSFORMATION(#15)
SHAPE_REPRESENTATION_RELATIONSHIP()
);
#17=CONTEXT_DEPENDENT_SHAPE_REPRESENTATION(#16,#537);
#18=NEXT_ASSEMBLY_USAGE_OCCURRENCE('B3C','B3C','B3C',#541,#542,'B3C');
#19=STYLED_ITEM('',(#552),#21);
#20=STYLED_ITEM('',(#552),#22);
#21=MANIFOLD_SOLID_BREP('1988',#271);
#22=MANIFOLD_SOLID_BREP('1989',#272);
#23=FACE_BOUND('',#78,.T.);
#24=FACE_BOUND('',#80,.T.);
#25=FACE_BOUND('',#88,.T.);
#26=FACE_BOUND('',#91,.T.);
#27=PLANE('',#293);
#28=PLANE('',#294);
#29=PLANE('',#313);
#30=PLANE('',#317);
#31=(
BOUNDED_SURFACE()
B_SPLINE_SURFACE(2,2,((#441,#442,#443,#444,#445,#446,#447,#448,#449),(#450,
#451,#452,#453,#454,#455,#456,#457,#458),(#459,#460,#461,#462,#463,#464,
#465,#466,#467)),.UNSPECIFIED.,.F.,.T.,.F.)
B_SPLINE_SURFACE_WITH_KNOTS((3,3),(3,2,2,2,3),(0.,0.0872664625997017),(-3.14159265358979,
-1.5707963267949,0.,1.5707963267949,3.14159265358979),.UNSPECIFIED.)
GEOMETRIC_REPRESENTATION_ITEM()
RATIONAL_B_SPLINE_SURFACE(((1.,0.707106781186548,1.,0.707106781186548,1.,
0.707106781186548,1.,0.707106781186548,1.),(0.999048221582557,0.706433772213386,
0.999048221582557,0.706433772213386,0.999048221582557,0.706433772213386,
0.999048221582557,0.706433772213386,0.999048221582557),(1.,0.707106781186548,
1.,0.707106781186548,1.,0.707106781186548,1.,0.707106781186548,1.)))
REPRESENTATION_ITEM('')
SURFACE()
);
#32=CYLINDRICAL_SURFACE('',#283,21.);
#33=CYLINDRICAL_SURFACE('',#309,19.5);
#34=CYLINDRICAL_SURFACE('',#310,22.95);
#35=CYLINDRICAL_SURFACE('',#315,31.75);
#36=LINE('',#434,#44);
#37=LINE('',#439,#45);
#38=LINE('',#480,#46);
#39=LINE('',#489,#47);
#40=LINE('',#501,#48);
#41=LINE('',#508,#49);
#42=LINE('',#513,#50);
#43=LINE('',#521,#51);
#44=VECTOR('',#339,20.6966545558168);
#45=VECTOR('',#344,21.);
#46=VECTOR('',#361,19.1937896776593);
#47=VECTOR('',#372,21.225);
#48=VECTOR('',#387,22.8652314428425);
#49=VECTOR('',#398,19.5);
#50=VECTOR('',#403,22.95);
#51=VECTOR('',#414,31.75);
#52=CONICAL_SURFACE('',#281,20.6966545558168,0.0872664625997093);
#53=CONICAL_SURFACE('',#291,19.1937896776593,0.0872664625997003);
#54=CONICAL_SURFACE('',#297,21.225,0.416513392810374);
#55=CONICAL_SURFACE('',#304,22.8652314428425,0.416513392810359);
#56=FACE_OUTER_BOUND('',#72,.T.);
#57=FACE_OUTER_BOUND('',#73,.T.);
#58=FACE_OUTER_BOUND('',#74,.T.);
#59=FACE_OUTER_BOUND('',#75,.T.);
#60=FACE_OUTER_BOUND('',#76,.T.);
#61=FACE_OUTER_BOUND('',#77,.T.);
#62=FACE_OUTER_BOUND('',#79,.T.);
#63=FACE_OUTER_BOUND('',#81,.T.);
#64=FACE_OUTER_BOUND('',#82,.T.);
#65=FACE_OUTER_BOUND('',#83,.T.);
#66=FACE_OUTER_BOUND('',#84,.T.);
#67=FACE_OUTER_BOUND('',#85,.T.);
#68=FACE_OUTER_BOUND('',#86,.T.);
#69=FACE_OUTER_BOUND('',#87,.T.);
#70=FACE_OUTER_BOUND('',#89,.T.);
#71=FACE_OUTER_BOUND('',#90,.T.);
#72=EDGE_LOOP('',(#180,#181,#182,#183,#184,#185));
#73=EDGE_LOOP('',(#186,#187,#188,#189,#190));
#74=EDGE_LOOP('',(#191,#192,#193,#194,#195,#196));
#75=EDGE_LOOP('',(#197,#198,#199,#200,#201,#202));
#76=EDGE_LOOP('',(#203,#204,#205,#206,#207));
#77=EDGE_LOOP('',(#208));
#78=EDGE_LOOP('',(#209));
#79=EDGE_LOOP('',(#210));
#80=EDGE_LOOP('',(#211));
#81=EDGE_LOOP('',(#212,#213,#214,#215,#216));
#82=EDGE_LOOP('',(#217,#218,#219,#220,#221,#222));
#83=EDGE_LOOP('',(#223,#224,#225,#226,#227));
#84=EDGE_LOOP('',(#228,#229,#230,#231,#232,#233));
#85=EDGE_LOOP('',(#234,#235,#236,#237,#238,#239));
#86=EDGE_LOOP('',(#240,#241,#242,#243));
#87=EDGE_LOOP('',(#244));
#88=EDGE_LOOP('',(#245));
#89=EDGE_LOOP('',(#246,#247,#248,#249));
#90=EDGE_LOOP('',(#250));
#91=EDGE_LOOP('',(#251));
#92=CIRCLE('',#276,20.9790708395046);
#93=CIRCLE('',#277,20.9790708395046);
#94=CIRCLE('',#278,5.5);
#95=CIRCLE('',#279,21.);
#96=CIRCLE('',#280,21.);
#97=CIRCLE('',#282,20.3933091116336);
#98=CIRCLE('',#284,21.);
#99=CIRCLE('',#285,21.);
#100=CIRCLE('',#286,19.4619469809174);
#101=CIRCLE('',#287,10.);
#102=CIRCLE('',#288,19.5);
#103=CIRCLE('',#289,19.5);
#104=CIRCLE('',#290,19.4619469809174);
#105=CIRCLE('',#292,18.8875793553186);
#106=CIRCLE('',#295,24.5902314428424);
#107=CIRCLE('',#296,22.95);
#108=CIRCLE('',#298,20.8679185917761);
#109=CIRCLE('',#299,20.8679185917761);
#110=CIRCLE('',#301,16.);
#111=CIRCLE('',#302,19.5);
#112=CIRCLE('',#303,19.5);
#113=CIRCLE('',#305,22.496160959755);
#114=CIRCLE('',#306,22.496160959755);
#115=CIRCLE('',#308,17.5);
#116=CIRCLE('',#311,22.95);
#117=CIRCLE('',#312,22.95);
#118=CIRCLE('',#314,31.75);
#119=CIRCLE('',#316,31.75);
#120=VERTEX_POINT('',#422);
#121=VERTEX_POINT('',#423);
#122=VERTEX_POINT('',#426);
#123=VERTEX_POINT('',#428);
#124=VERTEX_POINT('',#432);
#125=VERTEX_POINT('',#436);
#126=VERTEX_POINT('',#437);
#127=VERTEX_POINT('',#468);
#128=VERTEX_POINT('',#469);
#129=VERTEX_POINT('',#471);
#130=VERTEX_POINT('',#473);
#131=VERTEX_POINT('',#478);
#132=VERTEX_POINT('',#483);
#133=VERTEX_POINT('',#485);
#134=VERTEX_POINT('',#488);
#135=VERTEX_POINT('',#490);
#136=VERTEX_POINT('',#494);
#137=VERTEX_POINT('',#496);
#138=VERTEX_POINT('',#500);
#139=VERTEX_POINT('',#502);
#140=VERTEX_POINT('',#510);
#141=VERTEX_POINT('',#512);
#142=VERTEX_POINT('',#516);
#143=VERTEX_POINT('',#519);
#144=EDGE_CURVE('',#120,#121,#92,.T.);
#145=EDGE_CURVE('',#121,#120,#93,.T.);
#146=EDGE_CURVE('',#120,#122,#94,.T.);
#147=EDGE_CURVE('',#122,#123,#95,.T.);
#148=EDGE_CURVE('',#123,#122,#96,.T.);
#149=EDGE_CURVE('',#124,#124,#97,.T.);
#150=EDGE_CURVE('',#124,#121,#36,.T.);
#151=EDGE_CURVE('',#125,#126,#98,.T.);
#152=EDGE_CURVE('',#126,#123,#37,.T.);
#153=EDGE_CURVE('',#126,#125,#99,.T.);
#154=EDGE_CURVE('',#127,#128,#100,.T.);
#155=EDGE_CURVE('',#128,#129,#101,.T.);
#156=EDGE_CURVE('',#129,#130,#102,.T.);
#157=EDGE_CURVE('',#130,#129,#103,.T.);
#158=EDGE_CURVE('',#128,#127,#104,.T.);
#159=EDGE_CURVE('',#131,#131,#105,.T.);
#160=EDGE_CURVE('',#131,#127,#38,.T.);
#161=EDGE_CURVE('',#132,#132,#106,.T.);
#162=EDGE_CURVE('',#133,#133,#107,.T.);
#163=EDGE_CURVE('',#133,#134,#39,.T.);
#164=EDGE_CURVE('',#134,#135,#108,.T.);
#165=EDGE_CURVE('',#135,#134,#109,.T.);
#166=EDGE_CURVE('',#135,#136,#110,.T.);
#167=EDGE_CURVE('',#137,#136,#111,.T.);
#168=EDGE_CURVE('',#136,#137,#112,.T.);
#169=EDGE_CURVE('',#132,#138,#40,.T.);
#170=EDGE_CURVE('',#138,#139,#113,.T.);
#171=EDGE_CURVE('',#139,#138,#114,.T.);
#172=EDGE_CURVE('',#125,#139,#115,.T.);
#173=EDGE_CURVE('',#137,#130,#41,.T.);
#174=EDGE_CURVE('',#140,#140,#116,.T.);
#175=EDGE_CURVE('',#140,#141,#42,.T.);
#176=EDGE_CURVE('',#141,#141,#117,.T.);
#177=EDGE_CURVE('',#142,#142,#118,.T.);
#178=EDGE_CURVE('',#143,#143,#119,.T.);
#179=EDGE_CURVE('',#143,#142,#43,.T.);
#180=ORIENTED_EDGE('',*,*,#144,.T.);
#181=ORIENTED_EDGE('',*,*,#145,.T.);
#182=ORIENTED_EDGE('',*,*,#146,.T.);
#183=ORIENTED_EDGE('',*,*,#147,.T.);
#184=ORIENTED_EDGE('',*,*,#148,.T.);
#185=ORIENTED_EDGE('',*,*,#146,.F.);
#186=ORIENTED_EDGE('',*,*,#149,.F.);
#187=ORIENTED_EDGE('',*,*,#150,.T.);
#188=ORIENTED_EDGE('',*,*,#144,.F.);
#189=ORIENTED_EDGE('',*,*,#145,.F.);
#190=ORIENTED_EDGE('',*,*,#150,.F.);
#191=ORIENTED_EDGE('',*,*,#151,.T.);
#192=ORIENTED_EDGE('',*,*,#152,.T.);
#193=ORIENTED_EDGE('',*,*,#147,.F.);
#194=ORIENTED_EDGE('',*,*,#148,.F.);
#195=ORIENTED_EDGE('',*,*,#152,.F.);
#196=ORIENTED_EDGE('',*,*,#153,.T.);
#197=ORIENTED_EDGE('',*,*,#154,.T.);
#198=ORIENTED_EDGE('',*,*,#155,.T.);
#199=ORIENTED_EDGE('',*,*,#156,.T.);
#200=ORIENTED_EDGE('',*,*,#157,.T.);
#201=ORIENTED_EDGE('',*,*,#155,.F.);
#202=ORIENTED_EDGE('',*,*,#158,.T.);
#203=ORIENTED_EDGE('',*,*,#159,.T.);
#204=ORIENTED_EDGE('',*,*,#160,.T.);
#205=ORIENTED_EDGE('',*,*,#158,.F.);
#206=ORIENTED_EDGE('',*,*,#154,.F.);
#207=ORIENTED_EDGE('',*,*,#160,.F.);
#208=ORIENTED_EDGE('',*,*,#149,.T.);
#209=ORIENTED_EDGE('',*,*,#159,.F.);
#210=ORIENTED_EDGE('',*,*,#161,.F.);
#211=ORIENTED_EDGE('',*,*,#162,.T.);
#212=ORIENTED_EDGE('',*,*,#162,.F.);
#213=ORIENTED_EDGE('',*,*,#163,.T.);
#214=ORIENTED_EDGE('',*,*,#164,.T.);
#215=ORIENTED_EDGE('',*,*,#165,.T.);
#216=ORIENTED_EDGE('',*,*,#163,.F.);
#217=ORIENTED_EDGE('',*,*,#164,.F.);
#218=ORIENTED_EDGE('',*,*,#165,.F.);
#219=ORIENTED_EDGE('',*,*,#166,.T.);
#220=ORIENTED_EDGE('',*,*,#167,.F.);
#221=ORIENTED_EDGE('',*,*,#168,.F.);
#222=ORIENTED_EDGE('',*,*,#166,.F.);
#223=ORIENTED_EDGE('',*,*,#161,.T.);
#224=ORIENTED_EDGE('',*,*,#169,.T.);
#225=ORIENTED_EDGE('',*,*,#170,.T.);
#226=ORIENTED_EDGE('',*,*,#171,.T.);
#227=ORIENTED_EDGE('',*,*,#169,.F.);
#228=ORIENTED_EDGE('',*,*,#151,.F.);
#229=ORIENTED_EDGE('',*,*,#172,.T.);
#230=ORIENTED_EDGE('',*,*,#170,.F.);
#231=ORIENTED_EDGE('',*,*,#171,.F.);
#232=ORIENTED_EDGE('',*,*,#172,.F.);
#233=ORIENTED_EDGE('',*,*,#153,.F.);
#234=ORIENTED_EDGE('',*,*,#167,.T.);
#235=ORIENTED_EDGE('',*,*,#168,.T.);
#236=ORIENTED_EDGE('',*,*,#173,.T.);
#237=ORIENTED_EDGE('',*,*,#156,.F.);
#238=ORIENTED_EDGE('',*,*,#157,.F.);
#239=ORIENTED_EDGE('',*,*,#173,.F.);
#240=ORIENTED_EDGE('',*,*,#174,.F.);
#241=ORIENTED_EDGE('',*,*,#175,.T.);
#242=ORIENTED_EDGE('',*,*,#176,.F.);
#243=ORIENTED_EDGE('',*,*,#175,.F.);
#244=ORIENTED_EDGE('',*,*,#177,.F.);
#245=ORIENTED_EDGE('',*,*,#174,.T.);
#246=ORIENTED_EDGE('',*,*,#178,.F.);
#247=ORIENTED_EDGE('',*,*,#179,.T.);
#248=ORIENTED_EDGE('',*,*,#177,.T.);
#249=ORIENTED_EDGE('',*,*,#179,.F.);
#250=ORIENTED_EDGE('',*,*,#178,.T.);
#251=ORIENTED_EDGE('',*,*,#176,.T.);
#252=TOROIDAL_SURFACE('',#275,15.5,5.5);
#253=TOROIDAL_SURFACE('',#300,35.5,16.);
#254=TOROIDAL_SURFACE('',#307,38.5,17.5);
#255=ADVANCED_FACE('',(#56),#252,.T.);
#256=ADVANCED_FACE('',(#57),#52,.T.);
#257=ADVANCED_FACE('',(#58),#32,.T.);
#258=ADVANCED_FACE('',(#59),#31,.T.);
#259=ADVANCED_FACE('',(#60),#53,.F.);
#260=ADVANCED_FACE('',(#61,#23),#27,.T.);
#261=ADVANCED_FACE('',(#62,#24),#28,.F.);
#262=ADVANCED_FACE('',(#63),#54,.F.);
#263=ADVANCED_FACE('',(#64),#253,.T.);
#264=ADVANCED_FACE('',(#65),#55,.T.);
#265=ADVANCED_FACE('',(#66),#254,.F.);
#266=ADVANCED_FACE('',(#67),#33,.F.);
#267=ADVANCED_FACE('',(#68),#34,.F.);
#268=ADVANCED_FACE('',(#69,#25),#29,.T.);
#269=ADVANCED_FACE('',(#70),#35,.T.);
#270=ADVANCED_FACE('',(#71,#26),#30,.T.);
#271=CLOSED_SHELL('',(#255,#256,#257,#258,#259,#260,#261,#262,#263,#264,
#265,#266));
#272=CLOSED_SHELL('',(#267,#268,#269,#270));
#273=AXIS2_PLACEMENT_3D('',#419,#319,#320);
#274=AXIS2_PLACEMENT_3D('',#420,#321,#322);
#275=AXIS2_PLACEMENT_3D('',#421,#323,#324);
#276=AXIS2_PLACEMENT_3D('',#424,#325,#326);
#277=AXIS2_PLACEMENT_3D('',#425,#327,#328);
#278=AXIS2_PLACEMENT_3D('',#427,#329,#330);
#279=AXIS2_PLACEMENT_3D('',#429,#331,#332);
#280=AXIS2_PLACEMENT_3D('',#430,#333,#334);
#281=AXIS2_PLACEMENT_3D('',#431,#335,#336);
#282=AXIS2_PLACEMENT_3D('',#433,#337,#338);
#283=AXIS2_PLACEMENT_3D('',#435,#340,#341);
#284=AXIS2_PLACEMENT_3D('',#438,#342,#343);
#285=AXIS2_PLACEMENT_3D('',#440,#345,#346);
#286=AXIS2_PLACEMENT_3D('',#470,#347,#348);
#287=AXIS2_PLACEMENT_3D('',#472,#349,#350);
#288=AXIS2_PLACEMENT_3D('',#474,#351,#352);
#289=AXIS2_PLACEMENT_3D('',#475,#353,#354);
#290=AXIS2_PLACEMENT_3D('',#476,#355,#356);
#291=AXIS2_PLACEMENT_3D('',#477,#357,#358);
#292=AXIS2_PLACEMENT_3D('',#479,#359,#360);
#293=AXIS2_PLACEMENT_3D('',#481,#362,#363);
#294=AXIS2_PLACEMENT_3D('',#482,#364,#365);
#295=AXIS2_PLACEMENT_3D('',#484,#366,#367);
#296=AXIS2_PLACEMENT_3D('',#486,#368,#369);
#297=AXIS2_PLACEMENT_3D('',#487,#370,#371);
#298=AXIS2_PLACEMENT_3D('',#491,#373,#374);
#299=AXIS2_PLACEMENT_3D('',#492,#375,#376);
#300=AXIS2_PLACEMENT_3D('',#493,#377,#378);
#301=AXIS2_PLACEMENT_3D('',#495,#379,#380);
#302=AXIS2_PLACEMENT_3D('',#497,#381,#382);
#303=AXIS2_PLACEMENT_3D('',#498,#383,#384);
#304=AXIS2_PLACEMENT_3D('',#499,#385,#386);
#305=AXIS2_PLACEMENT_3D('',#503,#388,#389);
#306=AXIS2_PLACEMENT_3D('',#504,#390,#391);
#307=AXIS2_PLACEMENT_3D('',#505,#392,#393);
#308=AXIS2_PLACEMENT_3D('',#506,#394,#395);
#309=AXIS2_PLACEMENT_3D('',#507,#396,#397);
#310=AXIS2_PLACEMENT_3D('',#509,#399,#400);
#311=AXIS2_PLACEMENT_3D('',#511,#401,#402);
#312=AXIS2_PLACEMENT_3D('',#514,#404,#405);
#313=AXIS2_PLACEMENT_3D('',#515,#406,#407);
#314=AXIS2_PLACEMENT_3D('',#517,#408,#409);
#315=AXIS2_PLACEMENT_3D('',#518,#410,#411);
#316=AXIS2_PLACEMENT_3D('',#520,#412,#413);
#317=AXIS2_PLACEMENT_3D('',#522,#415,#416);
#318=AXIS2_PLACEMENT_3D('',#523,#417,#418);
#319=DIRECTION('axis',(0.,0.,1.));
#320=DIRECTION('refdir',(1.,0.,0.));
#321=DIRECTION('axis',(0.,0.,1.));
#322=DIRECTION('refdir',(1.,0.,0.));
#323=DIRECTION('center_axis',(0.,-6.12323399573677E-17,-1.));
#324=DIRECTION('ref_axis',(0.,1.,0.));
#325=DIRECTION('center_axis',(0.,6.12323399573677E-17,1.));
#326=DIRECTION('ref_axis',(-1.,0.,0.));
#327=DIRECTION('center_axis',(0.,6.12323399573677E-17,1.));
#328=DIRECTION('ref_axis',(-1.,0.,0.));
#329=DIRECTION('center_axis',(-1.,0.,0.));
#330=DIRECTION('ref_axis',(0.,-1.,6.12323399573677E-17));
#331=DIRECTION('center_axis',(0.,-6.12323399573677E-17,-1.));
#332=DIRECTION('ref_axis',(-1.,0.,0.));
#333=DIRECTION('center_axis',(0.,-6.12323399573677E-17,-1.));
#334=DIRECTION('ref_axis',(-1.,0.,0.));
#335=DIRECTION('center_axis',(0.,6.12323399573677E-17,1.));
#336=DIRECTION('ref_axis',(1.,0.,0.));
#337=DIRECTION('center_axis',(0.,-6.12323399573677E-17,-1.));
#338=DIRECTION('ref_axis',(1.,0.,0.));
#339=DIRECTION('',(-0.087155742747651,7.16728325556031E-17,0.996194698091746));
#340=DIRECTION('center_axis',(0.,-6.12323399573677E-17,-1.));
#341=DIRECTION('ref_axis',(1.,0.,0.));
#342=DIRECTION('center_axis',(0.,-6.12323399573677E-17,-1.));
#343=DIRECTION('ref_axis',(0.,1.,-6.12323399573677E-17));
#344=DIRECTION('',(0.,-6.12323399573677E-17,-1.));
#345=DIRECTION('center_axis',(0.,-6.12323399573677E-17,-1.));
#346=DIRECTION('ref_axis',(0.,1.,-6.12323399573677E-17));
#347=DIRECTION('center_axis',(0.,-6.12323399573677E-17,-1.));
#348=DIRECTION('ref_axis',(-1.,0.,0.));
#349=DIRECTION('center_axis',(-1.,0.,0.));
#350=DIRECTION('ref_axis',(0.,-1.,6.12323399573677E-17));
#351=DIRECTION('center_axis',(0.,6.12323399573677E-17,1.));
#352=DIRECTION('ref_axis',(-1.,-1.22464679914735E-16,7.49879891330929E-33));
#353=DIRECTION('center_axis',(0.,6.12323399573677E-17,1.));
#354=DIRECTION('ref_axis',(-1.,-1.22464679914735E-16,7.49879891330929E-33));
#355=DIRECTION('center_axis',(0.,-6.12323399573677E-17,-1.));
#356=DIRECTION('ref_axis',(-1.,0.,0.));
#357=DIRECTION('center_axis',(0.,6.12323399573677E-17,1.));
#358=DIRECTION('ref_axis',(1.,0.,0.));
#359=DIRECTION('center_axis',(0.,-6.12323399573677E-17,-1.));
#360=DIRECTION('ref_axis',(1.,0.,0.));
#361=DIRECTION('',(-0.0871557427476421,7.16728325556021E-17,0.996194698091747));
#362=DIRECTION('center_axis',(0.,-6.12323399573677E-17,-1.));
#363=DIRECTION('ref_axis',(0.,1.,-6.12323399573677E-17));
#364=DIRECTION('center_axis',(0.,-6.12323399573677E-17,-1.));
#365=DIRECTION('ref_axis',(-1.,0.,0.));
#366=DIRECTION('center_axis',(0.,-6.12323399573677E-17,-1.));
#367=DIRECTION('ref_axis',(1.,0.,0.));
#368=DIRECTION('center_axis',(0.,-6.12323399573677E-17,-1.));
#369=DIRECTION('ref_axis',(1.,0.,0.));
#370=DIRECTION('center_axis',(0.,6.12323399573677E-17,1.));
#371=DIRECTION('ref_axis',(-1.,0.,0.));
#372=DIRECTION('',(-0.404574398592543,-6.45121221668301E-18,-0.914505088013994));
#373=DIRECTION('center_axis',(0.,-6.12323399573677E-17,-1.));
#374=DIRECTION('ref_axis',(1.,-6.12323399573678E-17,3.74939945665465E-33));
#375=DIRECTION('center_axis',(0.,-6.12323399573677E-17,-1.));
#376=DIRECTION('ref_axis',(1.,-6.12323399573678E-17,3.74939945665465E-33));
#377=DIRECTION('center_axis',(0.,-6.12323399573677E-17,-1.));
#378=DIRECTION('ref_axis',(0.,-1.,0.));
#379=DIRECTION('center_axis',(1.,0.,0.));
#380=DIRECTION('ref_axis',(0.,1.,-6.12323399573677E-17));
#381=DIRECTION('center_axis',(0.,6.12323399573677E-17,1.));
#382=DIRECTION('ref_axis',(1.,0.,0.));
#383=DIRECTION('center_axis',(0.,6.12323399573677E-17,1.));
#384=DIRECTION('ref_axis',(1.,0.,0.));
#385=DIRECTION('center_axis',(0.,6.12323399573677E-17,1.));
#386=DIRECTION('ref_axis',(-1.,0.,0.));
#387=DIRECTION('',(-0.404574398592528,-6.45121221668517E-18,-0.914505088014));
#388=DIRECTION('center_axis',(0.,6.12323399573677E-17,1.));
#389=DIRECTION('ref_axis',(0.,1.,-6.12323399573677E-17));
#390=DIRECTION('center_axis',(0.,6.12323399573677E-17,1.));
#391=DIRECTION('ref_axis',(0.,1.,-6.12323399573677E-17));
#392=DIRECTION('center_axis',(0.,6.12323399573677E-17,1.));
#393=DIRECTION('ref_axis',(0.,1.,0.));
#394=DIRECTION('center_axis',(1.,0.,0.));
#395=DIRECTION('ref_axis',(0.,-1.,6.12323399573677E-17));
#396=DIRECTION('center_axis',(0.,-6.12323399573677E-17,-1.));
#397=DIRECTION('ref_axis',(1.,0.,0.));
#398=DIRECTION('',(0.,-6.12323399573677E-17,-1.));
#399=DIRECTION('center_axis',(0.,-6.12323399573677E-17,-1.));
#400=DIRECTION('ref_axis',(-1.,0.,0.));
#401=DIRECTION('center_axis',(0.,-6.12323399573677E-17,-1.));
#402=DIRECTION('ref_axis',(-1.,0.,0.));
#403=DIRECTION('',(0.,-6.12323399573677E-17,-1.));
#404=DIRECTION('center_axis',(0.,6.12323399573677E-17,1.));
#405=DIRECTION('ref_axis',(-1.,0.,0.));
#406=DIRECTION('center_axis',(0.,6.12323399573677E-17,1.));
#407=DIRECTION('ref_axis',(1.,0.,0.));
#408=DIRECTION('center_axis',(0.,-6.12323399573677E-17,-1.));
#409=DIRECTION('ref_axis',(1.,0.,0.));
#410=DIRECTION('center_axis',(0.,-6.12323399573677E-17,-1.));
#411=DIRECTION('ref_axis',(-1.,0.,0.));
#412=DIRECTION('center_axis',(0.,-6.12323399573677E-17,-1.));
#413=DIRECTION('ref_axis',(1.,0.,0.));
#414=DIRECTION('',(0.,6.12323399573677E-17,1.));
#415=DIRECTION('center_axis',(0.,-6.12323399573677E-17,-1.));
#416=DIRECTION('ref_axis',(-1.,0.,0.));
#417=DIRECTION('',(0.,0.,1.));
#418=DIRECTION('',(1.,0.,0.));
#419=CARTESIAN_POINT('',(0.,0.,0.));
#420=CARTESIAN_POINT('',(0.,0.,0.));
#421=CARTESIAN_POINT('Origin',(129.797305419129,97.1939330370281,-252.860424483455));
#422=CARTESIAN_POINT('',(129.797305419129,76.2148621975235,-253.339781068567));
#423=CARTESIAN_POINT('',(108.818234579624,97.1939330370281,-253.339781068567));
#424=CARTESIAN_POINT('Origin',(129.797305419129,97.1939330370281,-253.339781068567));
#425=CARTESIAN_POINT('Origin',(129.797305419129,97.1939330370281,-253.339781068567));
#426=CARTESIAN_POINT('',(129.797305419129,76.1939330370281,-252.860424483455));
#427=CARTESIAN_POINT('Origin',(129.797305419129,81.6939330370281,-252.860424483455));
#428=CARTESIAN_POINT('',(108.797305419129,97.1939330370281,-252.860424483455));
#429=CARTESIAN_POINT('Origin',(129.797305419129,97.1939330370281,-252.860424483455));
#430=CARTESIAN_POINT('Origin',(129.797305419129,97.1939330370281,-252.860424483455));
#431=CARTESIAN_POINT('Origin',(129.797305419129,97.1939330370281,-256.567813962269));
#432=CARTESIAN_POINT('',(109.403996307495,97.1939330370281,-260.035068255088));
#433=CARTESIAN_POINT('Origin',(129.797305419129,97.1939330370281,-260.035068255088));
#434=CARTESIAN_POINT('',(109.100650863312,97.1939330370281,-256.567813962269));
#435=CARTESIAN_POINT('Origin',(129.797305419129,97.1939330370281,-103.749545711611));
#436=CARTESIAN_POINT('',(129.797305419129,76.1939330370281,-161.848583638191));
#437=CARTESIAN_POINT('',(108.797305419129,97.1939330370281,-161.848583638191));
#438=CARTESIAN_POINT('Origin',(129.797305419129,97.1939330370281,-161.848583638191));
#439=CARTESIAN_POINT('',(108.797305419129,97.1939330370281,-103.749545711611));
#440=CARTESIAN_POINT('Origin',(129.797305419129,97.1939330370281,-161.848583638191));
#441=CARTESIAN_POINT('Ctrl Pts',(129.797305419129,77.6939330370281,-252.598458826003));
#442=CARTESIAN_POINT('Ctrl Pts',(110.297305419129,77.6939330370281,-252.598458826003));
#443=CARTESIAN_POINT('Ctrl Pts',(110.297305419129,97.1939330370281,-252.598458826003));
#444=CARTESIAN_POINT('Ctrl Pts',(110.297305419129,116.693933037028,-252.598458826003));
#445=CARTESIAN_POINT('Ctrl Pts',(129.797305419129,116.693933037028,-252.598458826003));
#446=CARTESIAN_POINT('Ctrl Pts',(149.297305419129,116.693933037028,-252.598458826003));
#447=CARTESIAN_POINT('Ctrl Pts',(149.297305419129,97.1939330370281,-252.598458826003));
#448=CARTESIAN_POINT('Ctrl Pts',(149.297305419129,77.6939330370281,-252.598458826003));
#449=CARTESIAN_POINT('Ctrl Pts',(129.797305419129,77.6939330370281,-252.598458826003));
#450=CARTESIAN_POINT('Ctrl Pts',(129.797305419129,77.6939330370281,-253.035068255088));
#451=CARTESIAN_POINT('Ctrl Pts',(110.297305419129,77.6939330370281,-253.035068255088));
#452=CARTESIAN_POINT('Ctrl Pts',(110.297305419129,97.1939330370281,-253.035068255088));
#453=CARTESIAN_POINT('Ctrl Pts',(110.297305419129,116.693933037028,-253.035068255088));
#454=CARTESIAN_POINT('Ctrl Pts',(129.797305419129,116.693933037028,-253.035068255088));
#455=CARTESIAN_POINT('Ctrl Pts',(149.297305419129,116.693933037028,-253.035068255088));
#456=CARTESIAN_POINT('Ctrl Pts',(149.297305419129,97.1939330370281,-253.035068255088));
#457=CARTESIAN_POINT('Ctrl Pts',(149.297305419129,77.6939330370281,-253.035068255088));
#458=CARTESIAN_POINT('Ctrl Pts',(129.797305419129,77.6939330370281,-253.035068255088));
#459=CARTESIAN_POINT('Ctrl Pts',(129.797305419129,77.7319860561107,-253.470016253479));
#460=CARTESIAN_POINT('Ctrl Pts',(110.335358438211,77.7319860561107,-253.470016253479));
#461=CARTESIAN_POINT('Ctrl Pts',(110.335358438211,97.1939330370281,-253.470016253479));
#462=CARTESIAN_POINT('Ctrl Pts',(110.335358438211,116.655880017946,-253.470016253479));
#463=CARTESIAN_POINT('Ctrl Pts',(129.797305419129,116.655880017946,-253.470016253479));
#464=CARTESIAN_POINT('Ctrl Pts',(149.259252400046,116.655880017946,-253.470016253479));
#465=CARTESIAN_POINT('Ctrl Pts',(149.259252400046,97.1939330370281,-253.470016253479));
#466=CARTESIAN_POINT('Ctrl Pts',(149.259252400046,77.7319860561107,-253.470016253479));
#467=CARTESIAN_POINT('Ctrl Pts',(129.797305419129,77.7319860561107,-253.470016253479));
#468=CARTESIAN_POINT('',(110.335358438211,97.1939330370281,-253.470016253479));
#469=CARTESIAN_POINT('',(129.797305419129,77.7319860561107,-253.470016253479));
#470=CARTESIAN_POINT('Origin',(129.797305419129,97.1939330370281,-253.470016253479));
#471=CARTESIAN_POINT('',(129.797305419129,77.6939330370281,-252.598458826003));
#472=CARTESIAN_POINT('Origin',(129.797305419129,87.6939330370281,-252.598458826003));
#473=CARTESIAN_POINT('',(110.297305419129,97.1939330370281,-252.598458826003));
#474=CARTESIAN_POINT('Origin',(129.797305419129,97.1939330370281,-252.598458826003));
#475=CARTESIAN_POINT('Origin',(129.797305419129,97.1939330370281,-252.598458826003));
#476=CARTESIAN_POINT('Origin',(129.797305419129,97.1939330370281,-253.470016253479));
#477=CARTESIAN_POINT('Origin',(129.797305419129,97.1939330370281,-256.535068255088));
#478=CARTESIAN_POINT('',(110.90972606381,97.1939330370281,-260.035068255088));
#479=CARTESIAN_POINT('Origin',(129.797305419129,97.1939330370281,-260.035068255088));
#480=CARTESIAN_POINT('',(110.60351574147,97.1939330370281,-256.535068255088));
#481=CARTESIAN_POINT('Origin',(148.684884774447,97.1939330370281,-260.035068255088));
#482=CARTESIAN_POINT('Origin',(106.847305419129,97.1939330370281,-150.035068255088));
#483=CARTESIAN_POINT('',(154.387536861971,97.1939330370281,-150.035068255088));
#484=CARTESIAN_POINT('Origin',(129.797305419129,97.1939330370281,-150.035068255088));
#485=CARTESIAN_POINT('',(152.747305419129,97.1939330370281,-150.035068255088));
#486=CARTESIAN_POINT('Origin',(129.797305419129,97.1939330370281,-150.035068255088));
#487=CARTESIAN_POINT('Origin',(129.797305419129,97.1939330370281,-153.934280074502));
#488=CARTESIAN_POINT('',(150.665224010905,97.1939330370281,-154.741431406351));
#489=CARTESIAN_POINT('',(151.022305419129,97.1939330370281,-153.934280074502));
#490=CARTESIAN_POINT('',(129.797305419129,118.061851628804,-154.741431406351));
#491=CARTESIAN_POINT('Origin',(129.797305419129,97.1939330370281,-154.741431406351));
#492=CARTESIAN_POINT('Origin',(129.797305419129,97.1939330370281,-154.741431406351));
#493=CARTESIAN_POINT('Origin',(129.797305419129,97.1939330370281,-161.214621783831));
#494=CARTESIAN_POINT('',(129.797305419129,116.693933037028,-161.214621783831));
#495=CARTESIAN_POINT('Origin',(129.797305419129,132.693933037028,-161.214621783831));
#496=CARTESIAN_POINT('',(110.297305419129,97.1939330370281,-161.214621783831));
#497=CARTESIAN_POINT('Origin',(129.797305419129,97.1939330370281,-161.214621783831));
#498=CARTESIAN_POINT('Origin',(129.797305419129,97.1939330370281,-161.214621783831));
#499=CARTESIAN_POINT('Origin',(129.797305419129,97.1939330370281,-153.934280074502));
#500=CARTESIAN_POINT('',(152.293466378884,97.1939330370281,-154.768531662821));
#501=CARTESIAN_POINT('',(152.662536861971,97.1939330370281,-153.934280074502));
#502=CARTESIAN_POINT('',(129.797305419129,74.6977720772731,-154.768531662821));
#503=CARTESIAN_POINT('Origin',(129.797305419129,97.1939330370281,-154.768531662821));
#504=CARTESIAN_POINT('Origin',(129.797305419129,97.1939330370281,-154.768531662821));
#505=CARTESIAN_POINT('Origin',(129.797305419129,97.1939330370281,-161.848583638191));
#506=CARTESIAN_POINT('Origin',(129.797305419129,58.6939330370281,-161.848583638191));
#507=CARTESIAN_POINT('Origin',(129.797305419129,97.1939330370281,-103.782291418792));
#508=CARTESIAN_POINT('',(110.297305419129,97.1939330370281,-103.782291418792));
#509=CARTESIAN_POINT('Origin',(129.797305419129,97.1939330370281,-100.035068255088));
#510=CARTESIAN_POINT('',(152.747305419129,97.1939330370281,-50.0350682550881));
#511=CARTESIAN_POINT('Origin',(129.797305419129,97.1939330370281,-50.035068255088));
#512=CARTESIAN_POINT('',(152.747305419129,97.1939330370281,-150.035068255088));
#513=CARTESIAN_POINT('',(152.747305419129,97.1939330370281,-100.035068255088));
#514=CARTESIAN_POINT('Origin',(129.797305419129,97.1939330370281,-150.035068255088));
#515=CARTESIAN_POINT('Origin',(98.0473054191289,97.1939330370281,-50.035068255088));
#516=CARTESIAN_POINT('',(161.547305419129,97.1939330370281,-50.035068255088));
#517=CARTESIAN_POINT('Origin',(129.797305419129,97.1939330370281,-50.035068255088));
#518=CARTESIAN_POINT('Origin',(129.797305419129,97.1939330370281,-100.035068255088));
#519=CARTESIAN_POINT('',(161.547305419129,97.1939330370281,-150.035068255088));
#520=CARTESIAN_POINT('Origin',(129.797305419129,97.1939330370281,-150.035068255088));
#521=CARTESIAN_POINT('',(161.547305419129,97.1939330370281,-100.035068255088));
#522=CARTESIAN_POINT('Origin',(129.797305419129,97.1939330370281,-150.035068255088));
#523=CARTESIAN_POINT('',(0.,0.,0.));
#524=UNCERTAINTY_MEASURE_WITH_UNIT(LENGTH_MEASURE(0.001),#530,
'DISTANCE_ACCURACY_VALUE',
'Maximum model space distance between geometric entities at asserted c
onnectivities');
#525=UNCERTAINTY_MEASURE_WITH_UNIT(LENGTH_MEASURE(0.001),#530,
'DISTANCE_ACCURACY_VALUE',
'Maximum model space distance between geometric entities at asserted c
onnectivities');
#526=UNCERTAINTY_MEASURE_WITH_UNIT(LENGTH_MEASURE(0.001),#530,
'DISTANCE_ACCURACY_VALUE',
'Maximum model space distance between geometric entities at asserted c
onnectivities');
#527=(
GEOMETRIC_REPRESENTATION_CONTEXT(3)
GLOBAL_UNCERTAINTY_ASSIGNED_CONTEXT((#524))
GLOBAL_UNIT_ASSIGNED_CONTEXT((#530,#531,#532))
REPRESENTATION_CONTEXT('','3D')
);
#528=(
GEOMETRIC_REPRESENTATION_CONTEXT(3)
GLOBAL_UNCERTAINTY_ASSIGNED_CONTEXT((#525))
GLOBAL_UNIT_ASSIGNED_CONTEXT((#530,#531,#532))
REPRESENTATION_CONTEXT('','3D')
);
#529=(
GEOMETRIC_REPRESENTATION_CONTEXT(3)
GLOBAL_UNCERTAINTY_ASSIGNED_CONTEXT((#526))
GLOBAL_UNIT_ASSIGNED_CONTEXT((#530,#531,#532))
REPRESENTATION_CONTEXT('','3D')
);
#530=(
LENGTH_UNIT()
NAMED_UNIT(*)
SI_UNIT(.CENTI.,.METRE.)
);
#531=(
NAMED_UNIT(*)
PLANE_ANGLE_UNIT()
SI_UNIT($,.RADIAN.)
);
#532=(
NAMED_UNIT(*)
SI_UNIT($,.STERADIAN.)
SOLID_ANGLE_UNIT()
);
#533=SHAPE_DEFINITION_REPRESENTATION(#535,#538);
#534=SHAPE_DEFINITION_REPRESENTATION(#536,#539);
#535=PRODUCT_DEFINITION_SHAPE('',$,#541);
#536=PRODUCT_DEFINITION_SHAPE('',$,#542);
#537=PRODUCT_DEFINITION_SHAPE($,$,#18);
#538=SHAPE_REPRESENTATION('',(#273,#318),#527);
#539=SHAPE_REPRESENTATION('',(#274),#528);
#540=PRODUCT_DEFINITION_CONTEXT('part definition',#548,'design');
#541=PRODUCT_DEFINITION('Product','Product',#543,#540);
#542=PRODUCT_DEFINITION('*S0','*S0',#544,#540);
#543=PRODUCT_DEFINITION_FORMATION('',$,#550);
#544=PRODUCT_DEFINITION_FORMATION('',$,#551);
#545=PRODUCT_RELATED_PRODUCT_CATEGORY('Product','Product',(#550));
#546=PRODUCT_RELATED_PRODUCT_CATEGORY('*S0','*S0',(#551));
#547=APPLICATION_PROTOCOL_DEFINITION('international standard',
'automotive_design',2009,#548);
#548=APPLICATION_CONTEXT(
'Core Data for Automotive Mechanical Design Process');
#549=PRODUCT_CONTEXT('part definition',#548,'mechanical');
#550=PRODUCT('Product','Product',$,(#549));
#551=PRODUCT('*S0','*S0',$,(#549));
#552=PRESENTATION_STYLE_ASSIGNMENT((#553));
#553=SURFACE_STYLE_USAGE(.BOTH.,#554);
#554=SURFACE_SIDE_STYLE('',(#555));
#555=SURFACE_STYLE_FILL_AREA(#556);
#556=FILL_AREA_STYLE('',(#557));
#557=FILL_AREA_STYLE_COLOUR('',#558);
#558=COLOUR_RGB('',0.749019607843137,0.749019607843137,0.749019607843137);
ENDSEC;
END-ISO-10303-21;
