ISO-10303-21;
HEADER;
/* Generated by software containing ST-Developer
 * from STEP Tools, Inc. (www.steptools.com) 
 */

FILE_DESCRIPTION(
/* description */ (''),
/* implementation_level */ '2;1');

FILE_NAME(
/* name */ '08005.100X_3D.stp',
/* time_stamp */ '2024-12-11T14:18:01+01:00',
/* author */ ('CAD'),
/* organization */ (''),
/* preprocessor_version */ 'ST-DEVELOPER v20',
/* originating_system */ 'AutoCAD Mechanical',
/* authorisation */ '');

FILE_SCHEMA (('AUTOMOTIVE_DESIGN { 1 0 10303 214 3 1 1 }'));
ENDSEC;

DATA;
#10=MECHANICAL_DESIGN_GEOMETRIC_PRESENTATION_REPRESENTATION('',(#25,#26),
#330);
#11=PRESENTATION_LAYER_ASSIGNMENT('3','BLECH',(#27));
#12=PRESENTATION_LAYER_ASSIGNMENT('2','ROHR',(#28));
#13=SHAPE_REPRESENTATION_RELATIONSHIP('SRR','None',#339,#14);
#14=ADVANCED_BREP_SHAPE_REPRESENTATION('',(#27,#28),#328);
#15=ITEM_DEFINED_TRANSFORMATION($,$,#180,#208);
#16=(
REPRESENTATION_RELATIONSHIP($,$,#340,#339)
REPRESENTATION_RELATIONSHIP_WITH_TRANSFORMATION(#15)
SHAPE_REPRESENTATION_RELATIONSHIP()
);
#17=CONTEXT_DEPENDENT_SHAPE_REPRESENTATION(#16,#338);
#18=NEXT_ASSEMBLY_USAGE_OCCURRENCE('10CD','10CD','10CD',#342,#343,
'10CD');
#19=FACE_BOUND('',#65,.T.);
#20=CONICAL_SURFACE('',#192,47.1608811546167,0.0872664625997244);
#21=CONICAL_SURFACE('',#204,45.9631643357616,0.0872664625997277);
#22=CONICAL_SURFACE('',#207,46.2240454903783,1.48352986419517);
#23=TOROIDAL_SURFACE('',#186,36.3,11.2);
#24=TOROIDAL_SURFACE('',#196,36.3,10.);
#25=STYLED_ITEM('',(#353),#27);
#26=STYLED_ITEM('',(#354),#28);
#27=MANIFOLD_SOLID_BREP('2B32',#177);
#28=MANIFOLD_SOLID_BREP('2DC5',#178);
#29=LINE('',#284,#35);
#30=LINE('',#297,#36);
#31=LINE('',#302,#37);
#32=LINE('',#316,#38);
#33=LINE('',#319,#39);
#34=LINE('',#323,#40);
#35=VECTOR('',#223,60.);
#36=VECTOR('',#238,47.1608811546167);
#37=VECTOR('',#245,47.5);
#38=VECTOR('',#262,46.3);
#39=VECTOR('',#265,45.9631643357616);
#40=VECTOR('',#272,46.2240454903783);
#41=CYLINDRICAL_SURFACE('',#185,60.);
#42=CYLINDRICAL_SURFACE('',#194,47.5);
#43=CYLINDRICAL_SURFACE('',#202,46.3);
#44=FACE_OUTER_BOUND('',#55,.T.);
#45=FACE_OUTER_BOUND('',#56,.T.);
#46=FACE_OUTER_BOUND('',#57,.T.);
#47=FACE_OUTER_BOUND('',#58,.T.);
#48=FACE_OUTER_BOUND('',#59,.T.);
#49=FACE_OUTER_BOUND('',#60,.T.);
#50=FACE_OUTER_BOUND('',#61,.T.);
#51=FACE_OUTER_BOUND('',#62,.T.);
#52=FACE_OUTER_BOUND('',#63,.T.);
#53=FACE_OUTER_BOUND('',#64,.T.);
#54=FACE_OUTER_BOUND('',#66,.T.);
#55=EDGE_LOOP('',(#119));
#56=EDGE_LOOP('',(#120));
#57=EDGE_LOOP('',(#121,#122,#123,#124));
#58=EDGE_LOOP('',(#125,#126,#127,#128,#129,#130));
#59=EDGE_LOOP('',(#131,#132,#133,#134,#135));
#60=EDGE_LOOP('',(#136,#137,#138,#139,#140));
#61=EDGE_LOOP('',(#141,#142,#143,#144,#145,#146));
#62=EDGE_LOOP('',(#147,#148,#149,#150,#151));
#63=EDGE_LOOP('',(#152,#153,#154,#155,#156));
#64=EDGE_LOOP('',(#157));
#65=EDGE_LOOP('',(#158));
#66=EDGE_LOOP('',(#159,#160,#161,#162));
#67=CIRCLE('',#182,60.);
#68=CIRCLE('',#184,60.);
#69=CIRCLE('',#187,47.5);
#70=CIRCLE('',#188,47.5);
#71=CIRCLE('',#189,11.2);
#72=CIRCLE('',#190,47.4573806186276);
#73=CIRCLE('',#191,47.4573806186276);
#74=CIRCLE('',#193,46.8217623092333);
#75=CIRCLE('',#195,47.5);
#76=CIRCLE('',#197,46.3);
#77=CIRCLE('',#198,46.3);
#78=CIRCLE('',#199,10.);
#79=CIRCLE('',#200,46.2619469809175);
#80=CIRCLE('',#201,46.2619469809175);
#81=CIRCLE('',#203,46.3);
#82=CIRCLE('',#205,45.6263286715233);
#83=VERTEX_POINT('',#278);
#84=VERTEX_POINT('',#281);
#85=VERTEX_POINT('',#286);
#86=VERTEX_POINT('',#287);
#87=VERTEX_POINT('',#290);
#88=VERTEX_POINT('',#292);
#89=VERTEX_POINT('',#296);
#90=VERTEX_POINT('',#300);
#91=VERTEX_POINT('',#304);
#92=VERTEX_POINT('',#305);
#93=VERTEX_POINT('',#308);
#94=VERTEX_POINT('',#310);
#95=VERTEX_POINT('',#314);
#96=VERTEX_POINT('',#318);
#97=EDGE_CURVE('',#83,#83,#67,.T.);
#98=EDGE_CURVE('',#84,#84,#68,.T.);
#99=EDGE_CURVE('',#83,#84,#29,.T.);
#100=EDGE_CURVE('',#85,#86,#69,.T.);
#101=EDGE_CURVE('',#86,#85,#70,.T.);
#102=EDGE_CURVE('',#85,#87,#71,.T.);
#103=EDGE_CURVE('',#87,#88,#72,.T.);
#104=EDGE_CURVE('',#88,#87,#73,.T.);
#105=EDGE_CURVE('',#88,#89,#30,.T.);
#106=EDGE_CURVE('',#89,#89,#74,.T.);
#107=EDGE_CURVE('',#90,#90,#75,.T.);
#108=EDGE_CURVE('',#90,#86,#31,.T.);
#109=EDGE_CURVE('',#91,#92,#76,.T.);
#110=EDGE_CURVE('',#92,#91,#77,.T.);
#111=EDGE_CURVE('',#91,#93,#78,.T.);
#112=EDGE_CURVE('',#93,#94,#79,.T.);
#113=EDGE_CURVE('',#94,#93,#80,.T.);
#114=EDGE_CURVE('',#95,#95,#81,.T.);
#115=EDGE_CURVE('',#95,#92,#32,.T.);
#116=EDGE_CURVE('',#94,#96,#33,.T.);
#117=EDGE_CURVE('',#96,#96,#82,.T.);
#118=EDGE_CURVE('',#96,#89,#34,.T.);
#119=ORIENTED_EDGE('',*,*,#97,.T.);
#120=ORIENTED_EDGE('',*,*,#98,.F.);
#121=ORIENTED_EDGE('',*,*,#97,.F.);
#122=ORIENTED_EDGE('',*,*,#99,.T.);
#123=ORIENTED_EDGE('',*,*,#98,.T.);
#124=ORIENTED_EDGE('',*,*,#99,.F.);
#125=ORIENTED_EDGE('',*,*,#100,.T.);
#126=ORIENTED_EDGE('',*,*,#101,.T.);
#127=ORIENTED_EDGE('',*,*,#102,.T.);
#128=ORIENTED_EDGE('',*,*,#103,.T.);
#129=ORIENTED_EDGE('',*,*,#104,.T.);
#130=ORIENTED_EDGE('',*,*,#102,.F.);
#131=ORIENTED_EDGE('',*,*,#103,.F.);
#132=ORIENTED_EDGE('',*,*,#104,.F.);
#133=ORIENTED_EDGE('',*,*,#105,.T.);
#134=ORIENTED_EDGE('',*,*,#106,.T.);
#135=ORIENTED_EDGE('',*,*,#105,.F.);
#136=ORIENTED_EDGE('',*,*,#107,.F.);
#137=ORIENTED_EDGE('',*,*,#108,.T.);
#138=ORIENTED_EDGE('',*,*,#100,.F.);
#139=ORIENTED_EDGE('',*,*,#101,.F.);
#140=ORIENTED_EDGE('',*,*,#108,.F.);
#141=ORIENTED_EDGE('',*,*,#109,.T.);
#142=ORIENTED_EDGE('',*,*,#110,.T.);
#143=ORIENTED_EDGE('',*,*,#111,.T.);
#144=ORIENTED_EDGE('',*,*,#112,.T.);
#145=ORIENTED_EDGE('',*,*,#113,.T.);
#146=ORIENTED_EDGE('',*,*,#111,.F.);
#147=ORIENTED_EDGE('',*,*,#114,.T.);
#148=ORIENTED_EDGE('',*,*,#115,.T.);
#149=ORIENTED_EDGE('',*,*,#109,.F.);
#150=ORIENTED_EDGE('',*,*,#110,.F.);
#151=ORIENTED_EDGE('',*,*,#115,.F.);
#152=ORIENTED_EDGE('',*,*,#112,.F.);
#153=ORIENTED_EDGE('',*,*,#113,.F.);
#154=ORIENTED_EDGE('',*,*,#116,.T.);
#155=ORIENTED_EDGE('',*,*,#117,.F.);
#156=ORIENTED_EDGE('',*,*,#116,.F.);
#157=ORIENTED_EDGE('',*,*,#107,.T.);
#158=ORIENTED_EDGE('',*,*,#114,.F.);
#159=ORIENTED_EDGE('',*,*,#117,.T.);
#160=ORIENTED_EDGE('',*,*,#118,.T.);
#161=ORIENTED_EDGE('',*,*,#106,.F.);
#162=ORIENTED_EDGE('',*,*,#118,.F.);
#163=PLANE('',#181);
#164=PLANE('',#183);
#165=PLANE('',#206);
#166=ADVANCED_FACE('',(#44),#163,.T.);
#167=ADVANCED_FACE('',(#45),#164,.T.);
#168=ADVANCED_FACE('',(#46),#41,.T.);
#169=ADVANCED_FACE('',(#47),#23,.T.);
#170=ADVANCED_FACE('',(#48),#20,.T.);
#171=ADVANCED_FACE('',(#49),#42,.T.);
#172=ADVANCED_FACE('',(#50),#24,.F.);
#173=ADVANCED_FACE('',(#51),#43,.F.);
#174=ADVANCED_FACE('',(#52),#21,.F.);
#175=ADVANCED_FACE('',(#53,#19),#165,.T.);
#176=ADVANCED_FACE('',(#54),#22,.F.);
#177=CLOSED_SHELL('',(#166,#167,#168));
#178=CLOSED_SHELL('',(#169,#170,#171,#172,#173,#174,#175,#176));
#179=AXIS2_PLACEMENT_3D('',#275,#209,#210);
#180=AXIS2_PLACEMENT_3D('',#276,#211,#212);
#181=AXIS2_PLACEMENT_3D('',#277,#213,#214);
#182=AXIS2_PLACEMENT_3D('',#279,#215,#216);
#183=AXIS2_PLACEMENT_3D('',#280,#217,#218);
#184=AXIS2_PLACEMENT_3D('',#282,#219,#220);
#185=AXIS2_PLACEMENT_3D('',#283,#221,#222);
#186=AXIS2_PLACEMENT_3D('',#285,#224,#225);
#187=AXIS2_PLACEMENT_3D('',#288,#226,#227);
#188=AXIS2_PLACEMENT_3D('',#289,#228,#229);
#189=AXIS2_PLACEMENT_3D('',#291,#230,#231);
#190=AXIS2_PLACEMENT_3D('',#293,#232,#233);
#191=AXIS2_PLACEMENT_3D('',#294,#234,#235);
#192=AXIS2_PLACEMENT_3D('',#295,#236,#237);
#193=AXIS2_PLACEMENT_3D('',#298,#239,#240);
#194=AXIS2_PLACEMENT_3D('',#299,#241,#242);
#195=AXIS2_PLACEMENT_3D('',#301,#243,#244);
#196=AXIS2_PLACEMENT_3D('',#303,#246,#247);
#197=AXIS2_PLACEMENT_3D('',#306,#248,#249);
#198=AXIS2_PLACEMENT_3D('',#307,#250,#251);
#199=AXIS2_PLACEMENT_3D('',#309,#252,#253);
#200=AXIS2_PLACEMENT_3D('',#311,#254,#255);
#201=AXIS2_PLACEMENT_3D('',#312,#256,#257);
#202=AXIS2_PLACEMENT_3D('',#313,#258,#259);
#203=AXIS2_PLACEMENT_3D('',#315,#260,#261);
#204=AXIS2_PLACEMENT_3D('',#317,#263,#264);
#205=AXIS2_PLACEMENT_3D('',#320,#266,#267);
#206=AXIS2_PLACEMENT_3D('',#321,#268,#269);
#207=AXIS2_PLACEMENT_3D('',#322,#270,#271);
#208=AXIS2_PLACEMENT_3D('',#324,#273,#274);
#209=DIRECTION('axis',(0.,0.,1.));
#210=DIRECTION('refdir',(1.,0.,0.));
#211=DIRECTION('axis',(0.,0.,1.));
#212=DIRECTION('refdir',(1.,0.,0.));
#213=DIRECTION('center_axis',(0.,0.,1.));
#214=DIRECTION('ref_axis',(1.,0.,0.));
#215=DIRECTION('center_axis',(0.,0.,1.));
#216=DIRECTION('ref_axis',(1.,0.,0.));
#217=DIRECTION('center_axis',(0.,0.,-1.));
#218=DIRECTION('ref_axis',(-1.,0.,0.));
#219=DIRECTION('center_axis',(0.,0.,1.));
#220=DIRECTION('ref_axis',(1.,0.,0.));
#221=DIRECTION('center_axis',(0.,0.,1.));
#222=DIRECTION('ref_axis',(-1.,0.,0.));
#223=DIRECTION('',(0.,0.,-1.));
#224=DIRECTION('center_axis',(0.,0.,1.));
#225=DIRECTION('ref_axis',(1.,0.,0.));
#226=DIRECTION('center_axis',(0.,0.,-1.));
#227=DIRECTION('ref_axis',(1.,0.,0.));
#228=DIRECTION('center_axis',(0.,0.,-1.));
#229=DIRECTION('ref_axis',(1.,0.,0.));
#230=DIRECTION('center_axis',(1.22464679914735E-16,-1.,0.));
#231=DIRECTION('ref_axis',(-1.,-1.22464679914735E-16,0.));
#232=DIRECTION('center_axis',(0.,0.,1.));
#233=DIRECTION('ref_axis',(1.,6.12323399573676E-17,0.));
#234=DIRECTION('center_axis',(0.,0.,1.));
#235=DIRECTION('ref_axis',(1.,6.12323399573676E-17,0.));
#236=DIRECTION('center_axis',(0.,0.,1.));
#237=DIRECTION('ref_axis',(-1.,0.,0.));
#238=DIRECTION('',(-0.087155742747666,-1.06735001383239E-17,-0.996194698091745));
#239=DIRECTION('center_axis',(0.,0.,1.));
#240=DIRECTION('ref_axis',(1.,0.,0.));
#241=DIRECTION('center_axis',(0.,0.,1.));
#242=DIRECTION('ref_axis',(-1.,0.,0.));
#243=DIRECTION('center_axis',(0.,0.,1.));
#244=DIRECTION('ref_axis',(1.,0.,0.));
#245=DIRECTION('',(0.,0.,-1.));
#246=DIRECTION('center_axis',(0.,0.,1.));
#247=DIRECTION('ref_axis',(1.,0.,0.));
#248=DIRECTION('center_axis',(0.,0.,1.));
#249=DIRECTION('ref_axis',(1.,0.,0.));
#250=DIRECTION('center_axis',(0.,0.,1.));
#251=DIRECTION('ref_axis',(1.,0.,0.));
#252=DIRECTION('center_axis',(1.22464679914735E-16,-1.,0.));
#253=DIRECTION('ref_axis',(-1.,-1.22464679914735E-16,0.));
#254=DIRECTION('center_axis',(0.,0.,-1.));
#255=DIRECTION('ref_axis',(1.,6.12323399573676E-17,0.));
#256=DIRECTION('center_axis',(0.,0.,-1.));
#257=DIRECTION('ref_axis',(1.,6.12323399573676E-17,0.));
#258=DIRECTION('center_axis',(0.,0.,1.));
#259=DIRECTION('ref_axis',(-1.,0.,0.));
#260=DIRECTION('center_axis',(0.,0.,1.));
#261=DIRECTION('ref_axis',(1.,0.,0.));
#262=DIRECTION('',(0.,0.,-1.));
#263=DIRECTION('center_axis',(0.,0.,1.));
#264=DIRECTION('ref_axis',(-1.,0.,0.));
#265=DIRECTION('',(-0.0871557427476694,-1.06735001383243E-17,-0.996194698091744));
#266=DIRECTION('center_axis',(0.,0.,1.));
#267=DIRECTION('ref_axis',(1.,0.,0.));
#268=DIRECTION('center_axis',(0.,0.,1.));
#269=DIRECTION('ref_axis',(1.,0.,0.));
#270=DIRECTION('center_axis',(0.,0.,-1.));
#271=DIRECTION('ref_axis',(-1.,0.,0.));
#272=DIRECTION('',(0.996194698091745,1.21998664834562E-16,-0.0871557427476686));
#273=DIRECTION('',(0.,0.,1.));
#274=DIRECTION('',(1.,0.,0.));
#275=CARTESIAN_POINT('',(0.,0.,0.));
#276=CARTESIAN_POINT('',(0.,0.,0.));
#277=CARTESIAN_POINT('Origin',(349.297524807583,0.,41.9765217651932));
#278=CARTESIAN_POINT('',(409.297524807583,7.34788079488412E-15,41.9765217651932));
#279=CARTESIAN_POINT('Origin',(349.297524807583,0.,41.9765217651932));
#280=CARTESIAN_POINT('Origin',(289.297524807583,0.,39.9765217651932));
#281=CARTESIAN_POINT('',(409.297524807583,7.34788079488412E-15,39.9765217651932));
#282=CARTESIAN_POINT('Origin',(349.297524807583,0.,39.9765217651932));
#283=CARTESIAN_POINT('Origin',(349.297524807583,0.,40.9765217651932));
#284=CARTESIAN_POINT('',(409.297524807583,7.34788079488412E-15,40.9765217651932));
#285=CARTESIAN_POINT('Origin',(349.297524807583,0.,-26.7821833950653));
#286=CARTESIAN_POINT('',(301.797524807583,5.81707229594993E-15,-26.7821833950653));
#287=CARTESIAN_POINT('',(396.797524807583,5.81707229594993E-15,-26.7821833950653));
#288=CARTESIAN_POINT('Origin',(349.297524807583,0.,-26.7821833950653));
#289=CARTESIAN_POINT('Origin',(349.297524807583,0.,-26.7821833950653));
#290=CARTESIAN_POINT('',(301.840144188955,-5.81185292705199E-15,-27.7583277138392));
#291=CARTESIAN_POINT('Origin',(312.997524807583,-4.44546788090489E-15,-26.7821833950653));
#292=CARTESIAN_POINT('',(396.75490542621,5.81185292705199E-15,-27.7583277138392));
#293=CARTESIAN_POINT('Origin',(349.297524807583,2.90592646352599E-15,-27.7583277138392));
#294=CARTESIAN_POINT('Origin',(349.297524807583,2.90592646352599E-15,-27.7583277138392));
#295=CARTESIAN_POINT('Origin',(349.297524807583,0.,-31.1473320952237));
#296=CARTESIAN_POINT('',(396.119287116816,5.73401213424408E-15,-35.0234782348068));
#297=CARTESIAN_POINT('',(396.4584059622,5.775542215097E-15,-31.1473320952237));
#298=CARTESIAN_POINT('Origin',(349.297524807583,0.,-35.0234782348068));
#299=CARTESIAN_POINT('Origin',(349.297524807583,0.,6.35266790477628));
#300=CARTESIAN_POINT('',(396.797524807583,5.81707229594993E-15,39.9765217651932));
#301=CARTESIAN_POINT('Origin',(349.297524807583,0.,39.9765217651932));
#302=CARTESIAN_POINT('',(396.797524807583,5.81707229594993E-15,6.35266790477628));
#303=CARTESIAN_POINT('Origin',(349.297524807583,0.,-26.7821833950654));
#304=CARTESIAN_POINT('',(302.997524807583,-5.67011468005225E-15,-26.7821833950654));
#305=CARTESIAN_POINT('',(395.597524807583,5.67011468005225E-15,-26.7821833950654));
#306=CARTESIAN_POINT('Origin',(349.297524807583,0.,-26.7821833950654));
#307=CARTESIAN_POINT('Origin',(349.297524807583,0.,-26.7821833950654));
#308=CARTESIAN_POINT('',(303.035577826665,5.66545452925051E-15,-27.6537408225421));
#309=CARTESIAN_POINT('Origin',(312.997524807583,-4.44546788090489E-15,-26.7821833950654));
#310=CARTESIAN_POINT('',(395.5594717885,5.66545452925051E-15,-27.6537408225421));
#311=CARTESIAN_POINT('Origin',(349.297524807583,2.83272726462526E-15,-27.6537408225421));
#312=CARTESIAN_POINT('Origin',(349.297524807583,2.83272726462526E-15,-27.6537408225421));
#313=CARTESIAN_POINT('Origin',(349.297524807583,0.,6.37886447052132));
#314=CARTESIAN_POINT('',(395.597524807583,5.67011468005225E-15,39.9765217651932));
#315=CARTESIAN_POINT('Origin',(349.297524807583,0.,39.9765217651932));
#316=CARTESIAN_POINT('',(395.597524807583,5.67011468005225E-15,6.37886447052132));
#317=CARTESIAN_POINT('Origin',(349.297524807583,0.,-31.0688420838301));
#318=CARTESIAN_POINT('',(394.923853479106,5.58761373644261E-15,-34.9188913435096));
#319=CARTESIAN_POINT('',(395.260689143345,5.62886420824743E-15,-31.0688420838301));
#320=CARTESIAN_POINT('Origin',(349.297524807583,0.,-34.9188913435096));
#321=CARTESIAN_POINT('Origin',(302.997524807583,0.,39.9765217651932));
#322=CARTESIAN_POINT('Origin',(349.297524807583,0.,-34.9711847891582));
#323=CARTESIAN_POINT('',(395.521570297961,5.66081293534334E-15,-34.9711847891582));
#324=CARTESIAN_POINT('',(0.,0.,0.));
#325=UNCERTAINTY_MEASURE_WITH_UNIT(LENGTH_MEASURE(0.001),#331,
'DISTANCE_ACCURACY_VALUE',
'Maximum model space distance between geometric entities at asserted c
onnectivities');
#326=UNCERTAINTY_MEASURE_WITH_UNIT(LENGTH_MEASURE(0.001),#331,
'DISTANCE_ACCURACY_VALUE',
'Maximum model space distance between geometric entities at asserted c
onnectivities');
#327=UNCERTAINTY_MEASURE_WITH_UNIT(LENGTH_MEASURE(0.001),#331,
'DISTANCE_ACCURACY_VALUE',
'Maximum model space distance between geometric entities at asserted c
onnectivities');
#328=(
GEOMETRIC_REPRESENTATION_CONTEXT(3)
GLOBAL_UNCERTAINTY_ASSIGNED_CONTEXT((#325))
GLOBAL_UNIT_ASSIGNED_CONTEXT((#331,#332,#333))
REPRESENTATION_CONTEXT('','3D')
);
#329=(
GEOMETRIC_REPRESENTATION_CONTEXT(3)
GLOBAL_UNCERTAINTY_ASSIGNED_CONTEXT((#326))
GLOBAL_UNIT_ASSIGNED_CONTEXT((#331,#332,#333))
REPRESENTATION_CONTEXT('','3D')
);
#330=(
GEOMETRIC_REPRESENTATION_CONTEXT(3)
GLOBAL_UNCERTAINTY_ASSIGNED_CONTEXT((#327))
GLOBAL_UNIT_ASSIGNED_CONTEXT((#331,#332,#333))
REPRESENTATION_CONTEXT('','3D')
);
#331=(
LENGTH_UNIT()
NAMED_UNIT(*)
SI_UNIT(.CENTI.,.METRE.)
);
#332=(
NAMED_UNIT(*)
PLANE_ANGLE_UNIT()
SI_UNIT($,.RADIAN.)
);
#333=(
NAMED_UNIT(*)
SI_UNIT($,.STERADIAN.)
SOLID_ANGLE_UNIT()
);
#334=SHAPE_DEFINITION_REPRESENTATION(#336,#339);
#335=SHAPE_DEFINITION_REPRESENTATION(#337,#340);
#336=PRODUCT_DEFINITION_SHAPE('',$,#342);
#337=PRODUCT_DEFINITION_SHAPE('',$,#343);
#338=PRODUCT_DEFINITION_SHAPE($,$,#18);
#339=SHAPE_REPRESENTATION('',(#179,#208),#328);
#340=SHAPE_REPRESENTATION('',(#180),#329);
#341=PRODUCT_DEFINITION_CONTEXT('part definition',#349,'design');
#342=PRODUCT_DEFINITION('Product','Product',#344,#341);
#343=PRODUCT_DEFINITION('*S2','*S2',#345,#341);
#344=PRODUCT_DEFINITION_FORMATION('',$,#351);
#345=PRODUCT_DEFINITION_FORMATION('',$,#352);
#346=PRODUCT_RELATED_PRODUCT_CATEGORY('Product','Product',(#351));
#347=PRODUCT_RELATED_PRODUCT_CATEGORY('*S2','*S2',(#352));
#348=APPLICATION_PROTOCOL_DEFINITION('international standard',
'automotive_design',2009,#349);
#349=APPLICATION_CONTEXT(
'Core Data for Automotive Mechanical Design Process');
#350=PRODUCT_CONTEXT('part definition',#349,'mechanical');
#351=PRODUCT('Product','Product',$,(#350));
#352=PRODUCT('*S2','*S2',$,(#350));
#353=PRESENTATION_STYLE_ASSIGNMENT((#355));
#354=PRESENTATION_STYLE_ASSIGNMENT((#356));
#355=SURFACE_STYLE_USAGE(.BOTH.,#357);
#356=SURFACE_STYLE_USAGE(.BOTH.,#358);
#357=SURFACE_SIDE_STYLE('',(#359));
#358=SURFACE_SIDE_STYLE('',(#360));
#359=SURFACE_STYLE_FILL_AREA(#361);
#360=SURFACE_STYLE_FILL_AREA(#362);
#361=FILL_AREA_STYLE('',(#363));
#362=FILL_AREA_STYLE('',(#364));
#363=FILL_AREA_STYLE_COLOUR('',#365);
#364=FILL_AREA_STYLE_COLOUR('',#366);
#365=COLOUR_RGB('',0.8,0.8,0.8);
#366=COLOUR_RGB('',0.870588235294118,0.870588235294118,0.870588235294118);
ENDSEC;
END-ISO-10303-21;
