ISO-10303-21;
HEADER;
/* Generated by software containing ST-Developer
 * from STEP Tools, Inc. (www.steptools.com) 
 */

FILE_DESCRIPTION(
/* description */ (''),
/* implementation_level */ '2;1');

FILE_NAME(
/* name */ '08005.070X_3D.stp',
/* time_stamp */ '2024-12-11T14:17:59+01:00',
/* author */ ('CAD'),
/* organization */ (''),
/* preprocessor_version */ 'ST-DEVELOPER v20',
/* originating_system */ 'AutoCAD Mechanical',
/* authorisation */ '');

FILE_SCHEMA (('AUTOMOTIVE_DESIGN { 1 0 10303 214 3 1 1 }'));
ENDSEC;

DATA;
#10=MECHANICAL_DESIGN_GEOMETRIC_PRESENTATION_REPRESENTATION('',(#25,#26),
#330);
#11=PRESENTATION_LAYER_ASSIGNMENT('3','BLECH',(#27));
#12=PRESENTATION_LAYER_ASSIGNMENT('2','ROHR',(#28));
#13=SHAPE_REPRESENTATION_RELATIONSHIP('SRR','None',#339,#14);
#14=ADVANCED_BREP_SHAPE_REPRESENTATION('',(#27,#28),#328);
#15=ITEM_DEFINED_TRANSFORMATION($,$,#180,#208);
#16=(
REPRESENTATION_RELATIONSHIP($,$,#340,#339)
REPRESENTATION_RELATIONSHIP_WITH_TRANSFORMATION(#15)
SHAPE_REPRESENTATION_RELATIONSHIP()
);
#17=CONTEXT_DEPENDENT_SHAPE_REPRESENTATION(#16,#338);
#18=NEXT_ASSEMBLY_USAGE_OCCURRENCE('10CD','10CD','10CD',#342,#343,
'10CD');
#19=CONICAL_SURFACE('',#196,33.090996556516,0.0872664625997551);
#20=CONICAL_SURFACE('',#198,33.5128160584888,1.48352986419516);
#21=CONICAL_SURFACE('',#200,34.287762049894,0.0872664625997062);
#22=TOROIDAL_SURFACE('',#192,24.6000000000286,8.69999999997145);
#23=TOROIDAL_SURFACE('',#203,25.2999999999914,9.20000000000863);
#24=FACE_BOUND('',#59,.T.);
#25=STYLED_ITEM('',(#353),#27);
#26=STYLED_ITEM('',(#354),#28);
#27=MANIFOLD_SOLID_BREP('259E',#177);
#28=MANIFOLD_SOLID_BREP('2A6A',#178);
#29=LINE('',#284,#35);
#30=LINE('',#292,#36);
#31=LINE('',#304,#37);
#32=LINE('',#308,#38);
#33=LINE('',#315,#39);
#34=LINE('',#323,#40);
#35=VECTOR('',#223,45.);
#36=VECTOR('',#232,33.3);
#37=VECTOR('',#247,33.090996556516);
#38=VECTOR('',#252,33.5128160584888);
#39=VECTOR('',#261,34.287762049894);
#40=VECTOR('',#272,34.5);
#41=CYLINDRICAL_SURFACE('',#185,45.);
#42=CYLINDRICAL_SURFACE('',#189,33.3);
#43=CYLINDRICAL_SURFACE('',#207,34.5);
#44=FACE_OUTER_BOUND('',#55,.T.);
#45=FACE_OUTER_BOUND('',#56,.T.);
#46=FACE_OUTER_BOUND('',#57,.T.);
#47=FACE_OUTER_BOUND('',#58,.T.);
#48=FACE_OUTER_BOUND('',#60,.T.);
#49=FACE_OUTER_BOUND('',#61,.T.);
#50=FACE_OUTER_BOUND('',#62,.T.);
#51=FACE_OUTER_BOUND('',#63,.T.);
#52=FACE_OUTER_BOUND('',#64,.T.);
#53=FACE_OUTER_BOUND('',#65,.T.);
#54=FACE_OUTER_BOUND('',#66,.T.);
#55=EDGE_LOOP('',(#119));
#56=EDGE_LOOP('',(#120));
#57=EDGE_LOOP('',(#121,#122,#123,#124));
#58=EDGE_LOOP('',(#125));
#59=EDGE_LOOP('',(#126));
#60=EDGE_LOOP('',(#127,#128,#129,#130,#131));
#61=EDGE_LOOP('',(#132,#133,#134,#135,#136,#137));
#62=EDGE_LOOP('',(#138,#139,#140,#141,#142));
#63=EDGE_LOOP('',(#143,#144,#145,#146));
#64=EDGE_LOOP('',(#147,#148,#149,#150,#151));
#65=EDGE_LOOP('',(#152,#153,#154,#155,#156,#157));
#66=EDGE_LOOP('',(#158,#159,#160,#161,#162));
#67=CIRCLE('',#182,45.);
#68=CIRCLE('',#184,45.);
#69=CIRCLE('',#187,34.5);
#70=CIRCLE('',#188,33.3);
#71=CIRCLE('',#190,33.3);
#72=CIRCLE('',#191,33.3);
#73=CIRCLE('',#193,8.69999999997145);
#74=CIRCLE('',#194,33.2668938733982);
#75=CIRCLE('',#195,33.2668938733982);
#76=CIRCLE('',#197,32.9150992396337);
#77=CIRCLE('',#199,34.1105328773439);
#78=CIRCLE('',#201,34.4649912224441);
#79=CIRCLE('',#202,34.4649912224441);
#80=CIRCLE('',#204,34.5);
#81=CIRCLE('',#205,9.20000000000863);
#82=CIRCLE('',#206,34.5);
#83=VERTEX_POINT('',#278);
#84=VERTEX_POINT('',#281);
#85=VERTEX_POINT('',#286);
#86=VERTEX_POINT('',#288);
#87=VERTEX_POINT('',#291);
#88=VERTEX_POINT('',#293);
#89=VERTEX_POINT('',#297);
#90=VERTEX_POINT('',#299);
#91=VERTEX_POINT('',#303);
#92=VERTEX_POINT('',#307);
#93=VERTEX_POINT('',#311);
#94=VERTEX_POINT('',#312);
#95=VERTEX_POINT('',#317);
#96=VERTEX_POINT('',#318);
#97=EDGE_CURVE('',#83,#83,#67,.T.);
#98=EDGE_CURVE('',#84,#84,#68,.T.);
#99=EDGE_CURVE('',#83,#84,#29,.T.);
#100=EDGE_CURVE('',#85,#85,#69,.T.);
#101=EDGE_CURVE('',#86,#86,#70,.T.);
#102=EDGE_CURVE('',#86,#87,#30,.T.);
#103=EDGE_CURVE('',#88,#87,#71,.T.);
#104=EDGE_CURVE('',#87,#88,#72,.T.);
#105=EDGE_CURVE('',#88,#89,#73,.T.);
#106=EDGE_CURVE('',#90,#89,#74,.T.);
#107=EDGE_CURVE('',#89,#90,#75,.T.);
#108=EDGE_CURVE('',#90,#91,#31,.T.);
#109=EDGE_CURVE('',#91,#91,#76,.T.);
#110=EDGE_CURVE('',#91,#92,#32,.T.);
#111=EDGE_CURVE('',#92,#92,#77,.T.);
#112=EDGE_CURVE('',#93,#94,#78,.T.);
#113=EDGE_CURVE('',#94,#93,#79,.T.);
#114=EDGE_CURVE('',#94,#92,#33,.T.);
#115=EDGE_CURVE('',#95,#96,#80,.T.);
#116=EDGE_CURVE('',#95,#93,#81,.T.);
#117=EDGE_CURVE('',#96,#95,#82,.T.);
#118=EDGE_CURVE('',#85,#96,#34,.T.);
#119=ORIENTED_EDGE('',*,*,#97,.T.);
#120=ORIENTED_EDGE('',*,*,#98,.F.);
#121=ORIENTED_EDGE('',*,*,#97,.F.);
#122=ORIENTED_EDGE('',*,*,#99,.T.);
#123=ORIENTED_EDGE('',*,*,#98,.T.);
#124=ORIENTED_EDGE('',*,*,#99,.F.);
#125=ORIENTED_EDGE('',*,*,#100,.T.);
#126=ORIENTED_EDGE('',*,*,#101,.F.);
#127=ORIENTED_EDGE('',*,*,#101,.T.);
#128=ORIENTED_EDGE('',*,*,#102,.T.);
#129=ORIENTED_EDGE('',*,*,#103,.F.);
#130=ORIENTED_EDGE('',*,*,#104,.F.);
#131=ORIENTED_EDGE('',*,*,#102,.F.);
#132=ORIENTED_EDGE('',*,*,#103,.T.);
#133=ORIENTED_EDGE('',*,*,#104,.T.);
#134=ORIENTED_EDGE('',*,*,#105,.T.);
#135=ORIENTED_EDGE('',*,*,#106,.F.);
#136=ORIENTED_EDGE('',*,*,#107,.F.);
#137=ORIENTED_EDGE('',*,*,#105,.F.);
#138=ORIENTED_EDGE('',*,*,#107,.T.);
#139=ORIENTED_EDGE('',*,*,#108,.T.);
#140=ORIENTED_EDGE('',*,*,#109,.F.);
#141=ORIENTED_EDGE('',*,*,#108,.F.);
#142=ORIENTED_EDGE('',*,*,#106,.T.);
#143=ORIENTED_EDGE('',*,*,#109,.T.);
#144=ORIENTED_EDGE('',*,*,#110,.T.);
#145=ORIENTED_EDGE('',*,*,#111,.F.);
#146=ORIENTED_EDGE('',*,*,#110,.F.);
#147=ORIENTED_EDGE('',*,*,#112,.F.);
#148=ORIENTED_EDGE('',*,*,#113,.F.);
#149=ORIENTED_EDGE('',*,*,#114,.T.);
#150=ORIENTED_EDGE('',*,*,#111,.T.);
#151=ORIENTED_EDGE('',*,*,#114,.F.);
#152=ORIENTED_EDGE('',*,*,#115,.F.);
#153=ORIENTED_EDGE('',*,*,#116,.T.);
#154=ORIENTED_EDGE('',*,*,#112,.T.);
#155=ORIENTED_EDGE('',*,*,#113,.T.);
#156=ORIENTED_EDGE('',*,*,#116,.F.);
#157=ORIENTED_EDGE('',*,*,#117,.F.);
#158=ORIENTED_EDGE('',*,*,#100,.F.);
#159=ORIENTED_EDGE('',*,*,#118,.T.);
#160=ORIENTED_EDGE('',*,*,#117,.T.);
#161=ORIENTED_EDGE('',*,*,#115,.T.);
#162=ORIENTED_EDGE('',*,*,#118,.F.);
#163=PLANE('',#181);
#164=PLANE('',#183);
#165=PLANE('',#186);
#166=ADVANCED_FACE('',(#44),#163,.T.);
#167=ADVANCED_FACE('',(#45),#164,.T.);
#168=ADVANCED_FACE('',(#46),#41,.T.);
#169=ADVANCED_FACE('',(#47,#24),#165,.T.);
#170=ADVANCED_FACE('',(#48),#42,.F.);
#171=ADVANCED_FACE('',(#49),#22,.F.);
#172=ADVANCED_FACE('',(#50),#19,.F.);
#173=ADVANCED_FACE('',(#51),#20,.F.);
#174=ADVANCED_FACE('',(#52),#21,.T.);
#175=ADVANCED_FACE('',(#53),#23,.T.);
#176=ADVANCED_FACE('',(#54),#43,.T.);
#177=CLOSED_SHELL('',(#166,#167,#168));
#178=CLOSED_SHELL('',(#169,#170,#171,#172,#173,#174,#175,#176));
#179=AXIS2_PLACEMENT_3D('',#275,#209,#210);
#180=AXIS2_PLACEMENT_3D('',#276,#211,#212);
#181=AXIS2_PLACEMENT_3D('',#277,#213,#214);
#182=AXIS2_PLACEMENT_3D('',#279,#215,#216);
#183=AXIS2_PLACEMENT_3D('',#280,#217,#218);
#184=AXIS2_PLACEMENT_3D('',#282,#219,#220);
#185=AXIS2_PLACEMENT_3D('',#283,#221,#222);
#186=AXIS2_PLACEMENT_3D('',#285,#224,#225);
#187=AXIS2_PLACEMENT_3D('',#287,#226,#227);
#188=AXIS2_PLACEMENT_3D('',#289,#228,#229);
#189=AXIS2_PLACEMENT_3D('',#290,#230,#231);
#190=AXIS2_PLACEMENT_3D('',#294,#233,#234);
#191=AXIS2_PLACEMENT_3D('',#295,#235,#236);
#192=AXIS2_PLACEMENT_3D('',#296,#237,#238);
#193=AXIS2_PLACEMENT_3D('',#298,#239,#240);
#194=AXIS2_PLACEMENT_3D('',#300,#241,#242);
#195=AXIS2_PLACEMENT_3D('',#301,#243,#244);
#196=AXIS2_PLACEMENT_3D('',#302,#245,#246);
#197=AXIS2_PLACEMENT_3D('',#305,#248,#249);
#198=AXIS2_PLACEMENT_3D('',#306,#250,#251);
#199=AXIS2_PLACEMENT_3D('',#309,#253,#254);
#200=AXIS2_PLACEMENT_3D('',#310,#255,#256);
#201=AXIS2_PLACEMENT_3D('',#313,#257,#258);
#202=AXIS2_PLACEMENT_3D('',#314,#259,#260);
#203=AXIS2_PLACEMENT_3D('',#316,#262,#263);
#204=AXIS2_PLACEMENT_3D('',#319,#264,#265);
#205=AXIS2_PLACEMENT_3D('',#320,#266,#267);
#206=AXIS2_PLACEMENT_3D('',#321,#268,#269);
#207=AXIS2_PLACEMENT_3D('',#322,#270,#271);
#208=AXIS2_PLACEMENT_3D('',#324,#273,#274);
#209=DIRECTION('axis',(0.,0.,1.));
#210=DIRECTION('refdir',(1.,0.,0.));
#211=DIRECTION('axis',(0.,0.,1.));
#212=DIRECTION('refdir',(1.,0.,0.));
#213=DIRECTION('center_axis',(0.,0.,1.));
#214=DIRECTION('ref_axis',(1.,0.,0.));
#215=DIRECTION('center_axis',(0.,0.,1.));
#216=DIRECTION('ref_axis',(1.,0.,0.));
#217=DIRECTION('center_axis',(0.,0.,-1.));
#218=DIRECTION('ref_axis',(-1.,0.,0.));
#219=DIRECTION('center_axis',(0.,0.,1.));
#220=DIRECTION('ref_axis',(1.,0.,0.));
#221=DIRECTION('center_axis',(0.,0.,1.));
#222=DIRECTION('ref_axis',(-1.,0.,0.));
#223=DIRECTION('',(0.,0.,-1.));
#224=DIRECTION('center_axis',(0.,0.,1.));
#225=DIRECTION('ref_axis',(1.,0.,0.));
#226=DIRECTION('center_axis',(0.,0.,1.));
#227=DIRECTION('ref_axis',(1.,0.,0.));
#228=DIRECTION('center_axis',(0.,0.,1.));
#229=DIRECTION('ref_axis',(1.,0.,0.));
#230=DIRECTION('center_axis',(0.,0.,1.));
#231=DIRECTION('ref_axis',(-1.,0.,0.));
#232=DIRECTION('',(0.,0.,-1.));
#233=DIRECTION('center_axis',(0.,0.,1.));
#234=DIRECTION('ref_axis',(1.,0.,0.));
#235=DIRECTION('center_axis',(0.,0.,1.));
#236=DIRECTION('ref_axis',(1.,0.,0.));
#237=DIRECTION('center_axis',(0.,0.,1.));
#238=DIRECTION('ref_axis',(1.,0.,0.));
#239=DIRECTION('center_axis',(1.22464679914735E-16,-1.,0.));
#240=DIRECTION('ref_axis',(-1.,-1.22464679914735E-16,0.));
#241=DIRECTION('center_axis',(0.,0.,1.));
#242=DIRECTION('ref_axis',(1.,0.,0.));
#243=DIRECTION('center_axis',(0.,0.,1.));
#244=DIRECTION('ref_axis',(1.,0.,0.));
#245=DIRECTION('center_axis',(0.,0.,1.));
#246=DIRECTION('ref_axis',(-1.,0.,0.));
#247=DIRECTION('',(-0.0871557427476966,-1.06735001383277E-17,-0.996194698091742));
#248=DIRECTION('center_axis',(0.,0.,1.));
#249=DIRECTION('ref_axis',(1.,0.,0.));
#250=DIRECTION('center_axis',(0.,0.,-1.));
#251=DIRECTION('ref_axis',(-1.,0.,0.));
#252=DIRECTION('',(0.996194698091744,1.21998664834562E-16,-0.0871557427476751));
#253=DIRECTION('center_axis',(0.,0.,1.));
#254=DIRECTION('ref_axis',(1.,0.,0.));
#255=DIRECTION('center_axis',(0.,0.,1.));
#256=DIRECTION('ref_axis',(-1.,0.,0.));
#257=DIRECTION('center_axis',(0.,0.,1.));
#258=DIRECTION('ref_axis',(1.,0.,0.));
#259=DIRECTION('center_axis',(0.,0.,1.));
#260=DIRECTION('ref_axis',(1.,0.,0.));
#261=DIRECTION('',(-0.0871557427476479,-1.06735001383217E-17,-0.996194698091746));
#262=DIRECTION('center_axis',(0.,0.,1.));
#263=DIRECTION('ref_axis',(1.,0.,0.));
#264=DIRECTION('center_axis',(0.,0.,1.));
#265=DIRECTION('ref_axis',(1.,0.,0.));
#266=DIRECTION('center_axis',(1.22464679914735E-16,-1.,0.));
#267=DIRECTION('ref_axis',(-1.,-1.22464679914735E-16,0.));
#268=DIRECTION('center_axis',(0.,0.,1.));
#269=DIRECTION('ref_axis',(1.,0.,0.));
#270=DIRECTION('center_axis',(0.,0.,1.));
#271=DIRECTION('ref_axis',(-1.,0.,0.));
#272=DIRECTION('',(0.,0.,-1.));
#273=DIRECTION('',(0.,0.,1.));
#274=DIRECTION('',(1.,0.,0.));
#275=CARTESIAN_POINT('',(0.,0.,0.));
#276=CARTESIAN_POINT('',(0.,0.,0.));
#277=CARTESIAN_POINT('Origin',(349.297524807583,0.,41.9765217651932));
#278=CARTESIAN_POINT('',(394.297524807583,5.51091059616309E-15,41.9765217651932));
#279=CARTESIAN_POINT('Origin',(349.297524807583,0.,41.9765217651932));
#280=CARTESIAN_POINT('Origin',(304.297524807583,0.,40.4765217651932));
#281=CARTESIAN_POINT('',(394.297524807583,5.51091059616309E-15,40.4765217651932));
#282=CARTESIAN_POINT('Origin',(349.297524807583,0.,40.4765217651932));
#283=CARTESIAN_POINT('Origin',(349.297524807583,0.,41.2265217651932));
#284=CARTESIAN_POINT('',(394.297524807583,5.51091059616309E-15,41.2265217651932));
#285=CARTESIAN_POINT('Origin',(315.997524807583,0.,40.4765217651932));
#286=CARTESIAN_POINT('',(383.797524807583,4.22503145705837E-15,40.4765217651932));
#287=CARTESIAN_POINT('Origin',(349.297524807583,0.,40.4765217651932));
#288=CARTESIAN_POINT('',(382.597524807583,4.07807384116069E-15,40.4765217651932));
#289=CARTESIAN_POINT('Origin',(349.297524807583,0.,40.4765217651932));
#290=CARTESIAN_POINT('Origin',(349.297524807583,0.,12.9184582236728));
#291=CARTESIAN_POINT('',(382.597524807583,4.07807384116069E-15,-14.6396053178476));
#292=CARTESIAN_POINT('',(382.597524807583,4.07807384116069E-15,12.9184582236728));
#293=CARTESIAN_POINT('',(315.997524807583,0.,-14.6396053178476));
#294=CARTESIAN_POINT('Origin',(349.297524807583,0.,-14.6396053178476));
#295=CARTESIAN_POINT('Origin',(349.297524807583,0.,-14.6396053178476));
#296=CARTESIAN_POINT('Origin',(349.297524807583,0.,-14.6396053178493));
#297=CARTESIAN_POINT('',(316.030630934185,0.,-15.3978602797526));
#298=CARTESIAN_POINT('Origin',(324.697524807554,-3.01263112590599E-15,-14.6396053178493));
#299=CARTESIAN_POINT('',(382.564418680981,4.07401950996318E-15,-15.3978602797526));
#300=CARTESIAN_POINT('Origin',(349.297524807583,0.,-15.3978602797526));
#301=CARTESIAN_POINT('Origin',(349.297524807583,0.,-15.3978602797526));
#302=CARTESIAN_POINT('Origin',(349.297524807583,0.,-17.4083758116311));
#303=CARTESIAN_POINT('',(382.212624047217,4.03093709274349E-15,-19.4188913435096));
#304=CARTESIAN_POINT('',(382.388521364099,4.05247830135334E-15,-17.4083758116311));
#305=CARTESIAN_POINT('Origin',(349.297524807583,0.,-19.4188913435096));
#306=CARTESIAN_POINT('Origin',(349.297524807583,0.,-19.4711847891582));
#307=CARTESIAN_POINT('',(383.408057684927,4.17733549054498E-15,-19.5234782348068));
#308=CARTESIAN_POINT('',(382.810340866072,4.10413629164423E-15,-19.4711847891582));
#309=CARTESIAN_POINT('Origin',(349.297524807583,0.,-19.5234782348068));
#310=CARTESIAN_POINT('Origin',(349.297524807583,0.,-17.497739522984));
#311=CARTESIAN_POINT('',(314.832533585139,0.,-15.4720008111612));
#312=CARTESIAN_POINT('',(383.762516030027,4.22074411832078E-15,-15.4720008111612));
#313=CARTESIAN_POINT('Origin',(349.297524807583,0.,-15.4720008111612));
#314=CARTESIAN_POINT('Origin',(349.297524807583,0.,-15.4720008111612));
#315=CARTESIAN_POINT('',(383.585286857477,4.19903980443288E-15,-17.497739522984));
#316=CARTESIAN_POINT('Origin',(349.297524807583,0.,-14.6701679778828));
#317=CARTESIAN_POINT('',(314.797524807583,0.,-14.6701679778828));
#318=CARTESIAN_POINT('',(383.797524807583,4.22503145705837E-15,-14.6701679778828));
#319=CARTESIAN_POINT('Origin',(349.297524807583,0.,-14.6701679778828));
#320=CARTESIAN_POINT('Origin',(323.997524807592,-3.09835640184175E-15,-14.6701679778828));
#321=CARTESIAN_POINT('Origin',(349.297524807583,0.,-14.6701679778828));
#322=CARTESIAN_POINT('Origin',(349.297524807583,0.,12.9031768936552));
#323=CARTESIAN_POINT('',(383.797524807583,4.22503145705837E-15,12.9031768936552));
#324=CARTESIAN_POINT('',(0.,0.,0.));
#325=UNCERTAINTY_MEASURE_WITH_UNIT(LENGTH_MEASURE(0.001),#331,
'DISTANCE_ACCURACY_VALUE',
'Maximum model space distance between geometric entities at asserted c
onnectivities');
#326=UNCERTAINTY_MEASURE_WITH_UNIT(LENGTH_MEASURE(0.001),#331,
'DISTANCE_ACCURACY_VALUE',
'Maximum model space distance between geometric entities at asserted c
onnectivities');
#327=UNCERTAINTY_MEASURE_WITH_UNIT(LENGTH_MEASURE(0.001),#331,
'DISTANCE_ACCURACY_VALUE',
'Maximum model space distance between geometric entities at asserted c
onnectivities');
#328=(
GEOMETRIC_REPRESENTATION_CONTEXT(3)
GLOBAL_UNCERTAINTY_ASSIGNED_CONTEXT((#325))
GLOBAL_UNIT_ASSIGNED_CONTEXT((#331,#332,#333))
REPRESENTATION_CONTEXT('','3D')
);
#329=(
GEOMETRIC_REPRESENTATION_CONTEXT(3)
GLOBAL_UNCERTAINTY_ASSIGNED_CONTEXT((#326))
GLOBAL_UNIT_ASSIGNED_CONTEXT((#331,#332,#333))
REPRESENTATION_CONTEXT('','3D')
);
#330=(
GEOMETRIC_REPRESENTATION_CONTEXT(3)
GLOBAL_UNCERTAINTY_ASSIGNED_CONTEXT((#327))
GLOBAL_UNIT_ASSIGNED_CONTEXT((#331,#332,#333))
REPRESENTATION_CONTEXT('','3D')
);
#331=(
LENGTH_UNIT()
NAMED_UNIT(*)
SI_UNIT(.CENTI.,.METRE.)
);
#332=(
NAMED_UNIT(*)
PLANE_ANGLE_UNIT()
SI_UNIT($,.RADIAN.)
);
#333=(
NAMED_UNIT(*)
SI_UNIT($,.STERADIAN.)
SOLID_ANGLE_UNIT()
);
#334=SHAPE_DEFINITION_REPRESENTATION(#336,#339);
#335=SHAPE_DEFINITION_REPRESENTATION(#337,#340);
#336=PRODUCT_DEFINITION_SHAPE('',$,#342);
#337=PRODUCT_DEFINITION_SHAPE('',$,#343);
#338=PRODUCT_DEFINITION_SHAPE($,$,#18);
#339=SHAPE_REPRESENTATION('',(#179,#208),#328);
#340=SHAPE_REPRESENTATION('',(#180),#329);
#341=PRODUCT_DEFINITION_CONTEXT('part definition',#349,'design');
#342=PRODUCT_DEFINITION('Product','Product',#344,#341);
#343=PRODUCT_DEFINITION('*S2','*S2',#345,#341);
#344=PRODUCT_DEFINITION_FORMATION('',$,#351);
#345=PRODUCT_DEFINITION_FORMATION('',$,#352);
#346=PRODUCT_RELATED_PRODUCT_CATEGORY('Product','Product',(#351));
#347=PRODUCT_RELATED_PRODUCT_CATEGORY('*S2','*S2',(#352));
#348=APPLICATION_PROTOCOL_DEFINITION('international standard',
'automotive_design',2009,#349);
#349=APPLICATION_CONTEXT(
'Core Data for Automotive Mechanical Design Process');
#350=PRODUCT_CONTEXT('part definition',#349,'mechanical');
#351=PRODUCT('Product','Product',$,(#350));
#352=PRODUCT('*S2','*S2',$,(#350));
#353=PRESENTATION_STYLE_ASSIGNMENT((#355));
#354=PRESENTATION_STYLE_ASSIGNMENT((#356));
#355=SURFACE_STYLE_USAGE(.BOTH.,#357);
#356=SURFACE_STYLE_USAGE(.BOTH.,#358);
#357=SURFACE_SIDE_STYLE('',(#359));
#358=SURFACE_SIDE_STYLE('',(#360));
#359=SURFACE_STYLE_FILL_AREA(#361);
#360=SURFACE_STYLE_FILL_AREA(#362);
#361=FILL_AREA_STYLE('',(#363));
#362=FILL_AREA_STYLE('',(#364));
#363=FILL_AREA_STYLE_COLOUR('',#365);
#364=FILL_AREA_STYLE_COLOUR('',#366);
#365=COLOUR_RGB('',0.8,0.8,0.8);
#366=COLOUR_RGB('',0.870588235294118,0.870588235294118,0.870588235294118);
ENDSEC;
END-ISO-10303-21;
