ISO-10303-21;
HEADER;
/* Generated by software containing ST-Developer
 * from STEP Tools, Inc. (www.steptools.com) 
 */

FILE_DESCRIPTION(
/* description */ (''),
/* implementation_level */ '2;1');

FILE_NAME(
/* name */ '08003.250X_3D.stp',
/* time_stamp */ '2024-12-11T14:17:56+01:00',
/* author */ ('CAD'),
/* organization */ (''),
/* preprocessor_version */ 'ST-DEVELOPER v20',
/* originating_system */ 'AutoCAD Mechanical',
/* authorisation */ '');

FILE_SCHEMA (('AUTOMOTIVE_DESIGN { 1 0 10303 214 3 1 1 }'));
ENDSEC;

DATA;
#10=MECHANICAL_DESIGN_GEOMETRIC_PRESENTATION_REPRESENTATION('',(#19,#20,
#21),#180);
#11=PRESENTATION_LAYER_ASSIGNMENT('4','Material (Verzinkt)',(#22,#23));
#12=PRESENTATION_LAYER_ASSIGNMENT('2','STEMPEL',(#18));
#13=GEOMETRICALLY_BOUNDED_SURFACE_SHAPE_REPRESENTATION('',(#14),#179);
#14=GEOMETRIC_SET('GEOSET',(#18));
#15=SHAPE_REPRESENTATION_RELATIONSHIP('SRR','None',#186,#17);
#16=SHAPE_REPRESENTATION_RELATIONSHIP('SRR','None',#186,#13);
#17=ADVANCED_BREP_SHAPE_REPRESENTATION('',(#22,#23),#179);
#18=TRIMMED_CURVE('294',#49,(#175,PARAMETER_VALUE(0.)),(#176,
PARAMETER_VALUE(1.)),.T.,.PARAMETER.);
#19=STYLED_ITEM('',(#195),#22);
#20=STYLED_ITEM('',(#195),#23);
#21=STYLED_ITEM('',(#197),#18);
#22=MANIFOLD_SOLID_BREP('25A',#103);
#23=MANIFOLD_SOLID_BREP('262',#104);
#24=FACE_BOUND('',#40,.T.);
#25=FACE_BOUND('',#42,.T.);
#26=PLANE('',#112);
#27=PLANE('',#113);
#28=PLANE('',#117);
#29=PLANE('',#118);
#30=FACE_OUTER_BOUND('',#37,.T.);
#31=FACE_OUTER_BOUND('',#38,.T.);
#32=FACE_OUTER_BOUND('',#39,.T.);
#33=FACE_OUTER_BOUND('',#41,.T.);
#34=FACE_OUTER_BOUND('',#43,.T.);
#35=FACE_OUTER_BOUND('',#44,.T.);
#36=FACE_OUTER_BOUND('',#45,.T.);
#37=EDGE_LOOP('',(#75,#76,#77,#78));
#38=EDGE_LOOP('',(#79,#80,#81,#82));
#39=EDGE_LOOP('',(#83));
#40=EDGE_LOOP('',(#84));
#41=EDGE_LOOP('',(#85));
#42=EDGE_LOOP('',(#86));
#43=EDGE_LOOP('',(#87,#88,#89,#90));
#44=EDGE_LOOP('',(#91));
#45=EDGE_LOOP('',(#92));
#46=LINE('',#156,#50);
#47=LINE('',#162,#51);
#48=LINE('',#170,#52);
#49=LINE('',#174,#53);
#50=VECTOR('',#125,133.3);
#51=VECTOR('',#132,136.5);
#52=VECTOR('',#143,144.5);
#53=VECTOR('',#150,89.);
#54=CIRCLE('',#107,133.3);
#55=CIRCLE('',#108,133.3);
#56=CIRCLE('',#110,136.5);
#57=CIRCLE('',#111,136.5);
#58=CIRCLE('',#115,144.5);
#59=CIRCLE('',#116,144.5);
#60=VERTEX_POINT('',#153);
#61=VERTEX_POINT('',#155);
#62=VERTEX_POINT('',#159);
#63=VERTEX_POINT('',#161);
#64=VERTEX_POINT('',#167);
#65=VERTEX_POINT('',#169);
#66=EDGE_CURVE('',#60,#60,#54,.T.);
#67=EDGE_CURVE('',#60,#61,#46,.T.);
#68=EDGE_CURVE('',#61,#61,#55,.T.);
#69=EDGE_CURVE('',#62,#62,#56,.T.);
#70=EDGE_CURVE('',#62,#63,#47,.T.);
#71=EDGE_CURVE('',#63,#63,#57,.T.);
#72=EDGE_CURVE('',#64,#64,#58,.T.);
#73=EDGE_CURVE('',#64,#65,#48,.T.);
#74=EDGE_CURVE('',#65,#65,#59,.T.);
#75=ORIENTED_EDGE('',*,*,#66,.F.);
#76=ORIENTED_EDGE('',*,*,#67,.T.);
#77=ORIENTED_EDGE('',*,*,#68,.T.);
#78=ORIENTED_EDGE('',*,*,#67,.F.);
#79=ORIENTED_EDGE('',*,*,#69,.F.);
#80=ORIENTED_EDGE('',*,*,#70,.T.);
#81=ORIENTED_EDGE('',*,*,#71,.T.);
#82=ORIENTED_EDGE('',*,*,#70,.F.);
#83=ORIENTED_EDGE('',*,*,#69,.T.);
#84=ORIENTED_EDGE('',*,*,#66,.T.);
#85=ORIENTED_EDGE('',*,*,#71,.F.);
#86=ORIENTED_EDGE('',*,*,#68,.F.);
#87=ORIENTED_EDGE('',*,*,#72,.F.);
#88=ORIENTED_EDGE('',*,*,#73,.T.);
#89=ORIENTED_EDGE('',*,*,#74,.F.);
#90=ORIENTED_EDGE('',*,*,#73,.F.);
#91=ORIENTED_EDGE('',*,*,#74,.T.);
#92=ORIENTED_EDGE('',*,*,#72,.T.);
#93=CYLINDRICAL_SURFACE('',#106,133.3);
#94=CYLINDRICAL_SURFACE('',#109,136.5);
#95=CYLINDRICAL_SURFACE('',#114,144.5);
#96=ADVANCED_FACE('',(#30),#93,.F.);
#97=ADVANCED_FACE('',(#31),#94,.T.);
#98=ADVANCED_FACE('',(#32,#24),#26,.T.);
#99=ADVANCED_FACE('',(#33,#25),#27,.F.);
#100=ADVANCED_FACE('',(#34),#95,.T.);
#101=ADVANCED_FACE('',(#35),#28,.T.);
#102=ADVANCED_FACE('',(#36),#29,.T.);
#103=CLOSED_SHELL('',(#96,#97,#98,#99));
#104=CLOSED_SHELL('',(#100,#101,#102));
#105=AXIS2_PLACEMENT_3D('',#151,#119,#120);
#106=AXIS2_PLACEMENT_3D('',#152,#121,#122);
#107=AXIS2_PLACEMENT_3D('',#154,#123,#124);
#108=AXIS2_PLACEMENT_3D('',#157,#126,#127);
#109=AXIS2_PLACEMENT_3D('',#158,#128,#129);
#110=AXIS2_PLACEMENT_3D('',#160,#130,#131);
#111=AXIS2_PLACEMENT_3D('',#163,#133,#134);
#112=AXIS2_PLACEMENT_3D('',#164,#135,#136);
#113=AXIS2_PLACEMENT_3D('',#165,#137,#138);
#114=AXIS2_PLACEMENT_3D('',#166,#139,#140);
#115=AXIS2_PLACEMENT_3D('',#168,#141,#142);
#116=AXIS2_PLACEMENT_3D('',#171,#144,#145);
#117=AXIS2_PLACEMENT_3D('',#172,#146,#147);
#118=AXIS2_PLACEMENT_3D('',#173,#148,#149);
#119=DIRECTION('axis',(0.,0.,1.));
#120=DIRECTION('refdir',(1.,0.,0.));
#121=DIRECTION('center_axis',(0.,0.,1.));
#122=DIRECTION('ref_axis',(1.,4.2643224951844E-16,0.));
#123=DIRECTION('center_axis',(0.,0.,-1.));
#124=DIRECTION('ref_axis',(1.,4.2643224951844E-16,0.));
#125=DIRECTION('',(0.,0.,-1.));
#126=DIRECTION('center_axis',(0.,0.,-1.));
#127=DIRECTION('ref_axis',(1.,4.2643224951844E-16,0.));
#128=DIRECTION('center_axis',(0.,0.,1.));
#129=DIRECTION('ref_axis',(-1.,0.,0.));
#130=DIRECTION('center_axis',(0.,0.,1.));
#131=DIRECTION('ref_axis',(1.,0.,0.));
#132=DIRECTION('',(0.,0.,-1.));
#133=DIRECTION('center_axis',(0.,0.,1.));
#134=DIRECTION('ref_axis',(-1.,0.,0.));
#135=DIRECTION('center_axis',(0.,0.,1.));
#136=DIRECTION('ref_axis',(1.,0.,0.));
#137=DIRECTION('center_axis',(0.,0.,1.));
#138=DIRECTION('ref_axis',(1.,0.,0.));
#139=DIRECTION('center_axis',(0.,0.,1.));
#140=DIRECTION('ref_axis',(1.,0.,0.));
#141=DIRECTION('center_axis',(0.,0.,1.));
#142=DIRECTION('ref_axis',(1.,0.,0.));
#143=DIRECTION('',(0.,0.,-1.));
#144=DIRECTION('center_axis',(0.,0.,-1.));
#145=DIRECTION('ref_axis',(1.,0.,0.));
#146=DIRECTION('center_axis',(0.,0.,-1.));
#147=DIRECTION('ref_axis',(-1.,0.,0.));
#148=DIRECTION('center_axis',(0.,0.,1.));
#149=DIRECTION('ref_axis',(1.,0.,0.));
#150=DIRECTION('',(0.,-2.55476039823856E-15,1.));
#151=CARTESIAN_POINT('',(0.,0.,0.));
#152=CARTESIAN_POINT('Origin',(1.13686837721616E-13,-2.27373675443232E-13,
-5.89430136164907E-13));
#153=CARTESIAN_POINT('',(-133.3,-2.8421709430404E-13,84.9999999999994));
#154=CARTESIAN_POINT('Origin',(1.13686837721616E-13,-2.27373675443232E-13,
84.9999999999994));
#155=CARTESIAN_POINT('',(-133.3,-2.8421709430404E-13,-5.89430136164907E-13));
#156=CARTESIAN_POINT('',(-133.3,-2.8421709430404E-13,-5.89430136164907E-13));
#157=CARTESIAN_POINT('Origin',(1.13686837721616E-13,-2.27373675443232E-13,
-5.89430136164907E-13));
#158=CARTESIAN_POINT('Origin',(1.13686837721616E-13,-1.70530256582424E-13,
-5.89430136164907E-13));
#159=CARTESIAN_POINT('',(136.5,-1.70530256582424E-13,84.9999999999994));
#160=CARTESIAN_POINT('Origin',(1.13686837721616E-13,-1.70530256582424E-13,
84.9999999999994));
#161=CARTESIAN_POINT('',(136.5,-1.70530256582424E-13,-5.89430136164907E-13));
#162=CARTESIAN_POINT('',(136.5,-1.70530256582424E-13,-5.89430136164907E-13));
#163=CARTESIAN_POINT('Origin',(1.13686837721616E-13,-1.70530256582424E-13,
-5.89430136164907E-13));
#164=CARTESIAN_POINT('Origin',(0.,-1.70530256582424E-13,84.9999999999994));
#165=CARTESIAN_POINT('Origin',(0.,-1.70530256582424E-13,-5.89430136164907E-13));
#166=CARTESIAN_POINT('Origin',(1.13686837721616E-13,-2.27373675443232E-13,
86.9999999999994));
#167=CARTESIAN_POINT('',(-144.5,-2.45069821690911E-13,88.9999999999994));
#168=CARTESIAN_POINT('Origin',(1.13686837721616E-13,-2.27373675443232E-13,
88.9999999999994));
#169=CARTESIAN_POINT('',(-144.5,-2.45069821690911E-13,84.9999999999994));
#170=CARTESIAN_POINT('',(-144.5,-2.45069821690911E-13,86.9999999999994));
#171=CARTESIAN_POINT('Origin',(1.13686837721616E-13,-2.27373675443232E-13,
84.9999999999994));
#172=CARTESIAN_POINT('Origin',(1.13686837721616E-13,-2.27373675443232E-13,
84.9999999999994));
#173=CARTESIAN_POINT('Origin',(1.13686837721616E-13,-2.27373675443232E-13,
88.9999999999994));
#174=CARTESIAN_POINT('',(2.27373675443232E-13,-5.6843418860808E-14,-5.89430136164907E-13));
#175=CARTESIAN_POINT('',(2.27373675443232E-13,-5.6843418860808E-14,-5.89430136164907E-13));
#176=CARTESIAN_POINT('',(2.27373675443232E-13,-2.8421709430404E-13,88.9999999999994));
#177=UNCERTAINTY_MEASURE_WITH_UNIT(LENGTH_MEASURE(0.001),#181,
'DISTANCE_ACCURACY_VALUE',
'Maximum model space distance between geometric entities at asserted c
onnectivities');
#178=UNCERTAINTY_MEASURE_WITH_UNIT(LENGTH_MEASURE(0.001),#181,
'DISTANCE_ACCURACY_VALUE',
'Maximum model space distance between geometric entities at asserted c
onnectivities');
#179=(
GEOMETRIC_REPRESENTATION_CONTEXT(3)
GLOBAL_UNCERTAINTY_ASSIGNED_CONTEXT((#177))
GLOBAL_UNIT_ASSIGNED_CONTEXT((#181,#182,#183))
REPRESENTATION_CONTEXT('','3D')
);
#180=(
GEOMETRIC_REPRESENTATION_CONTEXT(3)
GLOBAL_UNCERTAINTY_ASSIGNED_CONTEXT((#178))
GLOBAL_UNIT_ASSIGNED_CONTEXT((#181,#182,#183))
REPRESENTATION_CONTEXT('','3D')
);
#181=(
LENGTH_UNIT()
NAMED_UNIT(*)
SI_UNIT(.CENTI.,.METRE.)
);
#182=(
NAMED_UNIT(*)
PLANE_ANGLE_UNIT()
SI_UNIT($,.RADIAN.)
);
#183=(
NAMED_UNIT(*)
SI_UNIT($,.STERADIAN.)
SOLID_ANGLE_UNIT()
);
#184=SHAPE_DEFINITION_REPRESENTATION(#185,#186);
#185=PRODUCT_DEFINITION_SHAPE('',$,#188);
#186=SHAPE_REPRESENTATION('',(#105),#179);
#187=PRODUCT_DEFINITION_CONTEXT('part definition',#192,'design');
#188=PRODUCT_DEFINITION('Product','Product',#189,#187);
#189=PRODUCT_DEFINITION_FORMATION('',$,#194);
#190=PRODUCT_RELATED_PRODUCT_CATEGORY('Product','Product',(#194));
#191=APPLICATION_PROTOCOL_DEFINITION('international standard',
'automotive_design',2009,#192);
#192=APPLICATION_CONTEXT(
'Core Data for Automotive Mechanical Design Process');
#193=PRODUCT_CONTEXT('part definition',#192,'mechanical');
#194=PRODUCT('Product','Product',$,(#193));
#195=PRESENTATION_STYLE_ASSIGNMENT((#198));
#196=PRESENTATION_STYLE_ASSIGNMENT((#199));
#197=PRESENTATION_STYLE_ASSIGNMENT((#200));
#198=SURFACE_STYLE_USAGE(.BOTH.,#201);
#199=SURFACE_STYLE_USAGE(.BOTH.,#202);
#200=SURFACE_STYLE_USAGE(.BOTH.,#203);
#201=SURFACE_SIDE_STYLE('',(#204));
#202=SURFACE_SIDE_STYLE('',(#205));
#203=SURFACE_SIDE_STYLE('',(#206));
#204=SURFACE_STYLE_FILL_AREA(#207);
#205=SURFACE_STYLE_FILL_AREA(#208);
#206=SURFACE_STYLE_FILL_AREA(#209);
#207=FILL_AREA_STYLE('',(#210));
#208=FILL_AREA_STYLE('',(#211));
#209=FILL_AREA_STYLE('',(#212));
#210=FILL_AREA_STYLE_COLOUR('',#213);
#211=FILL_AREA_STYLE_COLOUR('',#214);
#212=FILL_AREA_STYLE_COLOUR('',#215);
#213=COLOUR_RGB('',0.870588235294118,0.870588235294118,0.870588235294118);
#214=COLOUR_RGB('',0.,1.,0.);
#215=COLOUR_RGB('',1.,0.,1.);
ENDSEC;
END-ISO-10303-21;
