ISO-10303-21;
HEADER;
/* Generated by software containing ST-Developer
 * from STEP Tools, Inc. (www.steptools.com) 
 */

FILE_DESCRIPTION(
/* description */ (''),
/* implementation_level */ '2;1');

FILE_NAME(
/* name */ '08001.200X_3D.stp',
/* time_stamp */ '2024-12-11T14:17:54+01:00',
/* author */ ('CAD'),
/* organization */ (''),
/* preprocessor_version */ 'ST-DEVELOPER v20',
/* originating_system */ 'AutoCAD Mechanical',
/* authorisation */ '');

FILE_SCHEMA (('AUTOMOTIVE_DESIGN { 1 0 10303 214 3 1 1 }'));
ENDSEC;

DATA;
#10=MECHANICAL_DESIGN_GEOMETRIC_PRESENTATION_REPRESENTATION('',(#25,#26),
#290);
#11=PRESENTATION_LAYER_ASSIGNMENT('3','BLECH',(#27));
#12=PRESENTATION_LAYER_ASSIGNMENT('2','ROHR',(#28));
#13=SHAPE_REPRESENTATION_RELATIONSHIP('SRR','None',#299,#14);
#14=ADVANCED_BREP_SHAPE_REPRESENTATION('',(#27,#28),#288);
#15=ITEM_DEFINED_TRANSFORMATION($,$,#160,#184);
#16=(
REPRESENTATION_RELATIONSHIP($,$,#300,#299)
REPRESENTATION_RELATIONSHIP_WITH_TRANSFORMATION(#15)
SHAPE_REPRESENTATION_RELATIONSHIP()
);
#17=CONTEXT_DEPENDENT_SHAPE_REPRESENTATION(#16,#298);
#18=NEXT_ASSEMBLY_USAGE_OCCURRENCE('10CD','10CD','10CD',#302,#303,
'10CD');
#19=FACE_BOUND('',#66,.T.);
#20=CONICAL_SURFACE('',#170,107.066361984279,0.0872664625997094);
#21=CONICAL_SURFACE('',#178,109.06255668237,0.0872664625997155);
#22=CONICAL_SURFACE('',#182,107.628918666649,1.48352986419519);
#23=TOROIDAL_SURFACE('',#166,89.5,18.);
#24=TOROIDAL_SURFACE('',#174,89.5,20.);
#25=STYLED_ITEM('',(#313),#27);
#26=STYLED_ITEM('',(#314),#28);
#27=MANIFOLD_SOLID_BREP('33CE',#157);
#28=MANIFOLD_SOLID_BREP('33E5',#158);
#29=LINE('',#251,#35);
#30=LINE('',#262,#36);
#31=LINE('',#265,#37);
#32=LINE('',#276,#38);
#33=LINE('',#279,#39);
#34=LINE('',#282,#40);
#35=VECTOR('',#197,130.);
#36=VECTOR('',#212,107.066361984279);
#37=VECTOR('',#215,107.5);
#38=VECTOR('',#230,109.06255668237);
#39=VECTOR('',#233,109.5);
#40=VECTOR('',#238,107.628918666649);
#41=CYLINDRICAL_SURFACE('',#163,130.);
#42=CYLINDRICAL_SURFACE('',#172,107.5);
#43=CYLINDRICAL_SURFACE('',#180,109.5);
#44=FACE_OUTER_BOUND('',#55,.T.);
#45=FACE_OUTER_BOUND('',#56,.T.);
#46=FACE_OUTER_BOUND('',#57,.T.);
#47=FACE_OUTER_BOUND('',#58,.T.);
#48=FACE_OUTER_BOUND('',#59,.T.);
#49=FACE_OUTER_BOUND('',#60,.T.);
#50=FACE_OUTER_BOUND('',#61,.T.);
#51=FACE_OUTER_BOUND('',#62,.T.);
#52=FACE_OUTER_BOUND('',#63,.T.);
#53=FACE_OUTER_BOUND('',#64,.T.);
#54=FACE_OUTER_BOUND('',#65,.T.);
#55=EDGE_LOOP('',(#107));
#56=EDGE_LOOP('',(#108,#109,#110,#111));
#57=EDGE_LOOP('',(#112));
#58=EDGE_LOOP('',(#113,#114,#115,#116));
#59=EDGE_LOOP('',(#117,#118,#119,#120));
#60=EDGE_LOOP('',(#121,#122,#123,#124));
#61=EDGE_LOOP('',(#125,#126,#127,#128));
#62=EDGE_LOOP('',(#129,#130,#131,#132));
#63=EDGE_LOOP('',(#133,#134,#135,#136));
#64=EDGE_LOOP('',(#137,#138,#139,#140));
#65=EDGE_LOOP('',(#141));
#66=EDGE_LOOP('',(#142));
#67=CIRCLE('',#162,130.);
#68=CIRCLE('',#164,130.);
#69=CIRCLE('',#167,107.431504565651);
#70=CIRCLE('',#168,18.);
#71=CIRCLE('',#169,107.5);
#72=CIRCLE('',#171,106.632723968557);
#73=CIRCLE('',#173,107.5);
#74=CIRCLE('',#175,109.423893961835);
#75=CIRCLE('',#176,20.);
#76=CIRCLE('',#177,109.5);
#77=CIRCLE('',#179,108.625113364741);
#78=CIRCLE('',#181,109.5);
#79=VERTEX_POINT('',#246);
#80=VERTEX_POINT('',#249);
#81=VERTEX_POINT('',#254);
#82=VERTEX_POINT('',#256);
#83=VERTEX_POINT('',#260);
#84=VERTEX_POINT('',#264);
#85=VERTEX_POINT('',#268);
#86=VERTEX_POINT('',#270);
#87=VERTEX_POINT('',#274);
#88=VERTEX_POINT('',#278);
#89=EDGE_CURVE('',#79,#79,#67,.T.);
#90=EDGE_CURVE('',#80,#80,#68,.T.);
#91=EDGE_CURVE('',#80,#79,#29,.T.);
#92=EDGE_CURVE('',#81,#81,#69,.T.);
#93=EDGE_CURVE('',#81,#82,#70,.T.);
#94=EDGE_CURVE('',#82,#82,#71,.T.);
#95=EDGE_CURVE('',#83,#83,#72,.T.);
#96=EDGE_CURVE('',#83,#81,#30,.T.);
#97=EDGE_CURVE('',#82,#84,#31,.T.);
#98=EDGE_CURVE('',#84,#84,#73,.T.);
#99=EDGE_CURVE('',#85,#85,#74,.T.);
#100=EDGE_CURVE('',#85,#86,#75,.T.);
#101=EDGE_CURVE('',#86,#86,#76,.T.);
#102=EDGE_CURVE('',#87,#87,#77,.T.);
#103=EDGE_CURVE('',#87,#85,#32,.T.);
#104=EDGE_CURVE('',#86,#88,#33,.T.);
#105=EDGE_CURVE('',#88,#88,#78,.T.);
#106=EDGE_CURVE('',#87,#83,#34,.T.);
#107=ORIENTED_EDGE('',*,*,#89,.F.);
#108=ORIENTED_EDGE('',*,*,#90,.F.);
#109=ORIENTED_EDGE('',*,*,#91,.T.);
#110=ORIENTED_EDGE('',*,*,#89,.T.);
#111=ORIENTED_EDGE('',*,*,#91,.F.);
#112=ORIENTED_EDGE('',*,*,#90,.T.);
#113=ORIENTED_EDGE('',*,*,#92,.T.);
#114=ORIENTED_EDGE('',*,*,#93,.T.);
#115=ORIENTED_EDGE('',*,*,#94,.T.);
#116=ORIENTED_EDGE('',*,*,#93,.F.);
#117=ORIENTED_EDGE('',*,*,#95,.T.);
#118=ORIENTED_EDGE('',*,*,#96,.T.);
#119=ORIENTED_EDGE('',*,*,#92,.F.);
#120=ORIENTED_EDGE('',*,*,#96,.F.);
#121=ORIENTED_EDGE('',*,*,#94,.F.);
#122=ORIENTED_EDGE('',*,*,#97,.T.);
#123=ORIENTED_EDGE('',*,*,#98,.F.);
#124=ORIENTED_EDGE('',*,*,#97,.F.);
#125=ORIENTED_EDGE('',*,*,#99,.T.);
#126=ORIENTED_EDGE('',*,*,#100,.T.);
#127=ORIENTED_EDGE('',*,*,#101,.T.);
#128=ORIENTED_EDGE('',*,*,#100,.F.);
#129=ORIENTED_EDGE('',*,*,#102,.F.);
#130=ORIENTED_EDGE('',*,*,#103,.T.);
#131=ORIENTED_EDGE('',*,*,#99,.F.);
#132=ORIENTED_EDGE('',*,*,#103,.F.);
#133=ORIENTED_EDGE('',*,*,#101,.F.);
#134=ORIENTED_EDGE('',*,*,#104,.T.);
#135=ORIENTED_EDGE('',*,*,#105,.T.);
#136=ORIENTED_EDGE('',*,*,#104,.F.);
#137=ORIENTED_EDGE('',*,*,#102,.T.);
#138=ORIENTED_EDGE('',*,*,#106,.T.);
#139=ORIENTED_EDGE('',*,*,#95,.F.);
#140=ORIENTED_EDGE('',*,*,#106,.F.);
#141=ORIENTED_EDGE('',*,*,#105,.F.);
#142=ORIENTED_EDGE('',*,*,#98,.T.);
#143=PLANE('',#161);
#144=PLANE('',#165);
#145=PLANE('',#183);
#146=ADVANCED_FACE('',(#44),#143,.T.);
#147=ADVANCED_FACE('',(#45),#41,.T.);
#148=ADVANCED_FACE('',(#46),#144,.T.);
#149=ADVANCED_FACE('',(#47),#23,.F.);
#150=ADVANCED_FACE('',(#48),#20,.F.);
#151=ADVANCED_FACE('',(#49),#42,.F.);
#152=ADVANCED_FACE('',(#50),#24,.T.);
#153=ADVANCED_FACE('',(#51),#21,.T.);
#154=ADVANCED_FACE('',(#52),#43,.T.);
#155=ADVANCED_FACE('',(#53),#22,.F.);
#156=ADVANCED_FACE('',(#54,#19),#145,.T.);
#157=CLOSED_SHELL('',(#146,#147,#148));
#158=CLOSED_SHELL('',(#149,#150,#151,#152,#153,#154,#155,#156));
#159=AXIS2_PLACEMENT_3D('',#243,#185,#186);
#160=AXIS2_PLACEMENT_3D('',#244,#187,#188);
#161=AXIS2_PLACEMENT_3D('',#245,#189,#190);
#162=AXIS2_PLACEMENT_3D('',#247,#191,#192);
#163=AXIS2_PLACEMENT_3D('',#248,#193,#194);
#164=AXIS2_PLACEMENT_3D('',#250,#195,#196);
#165=AXIS2_PLACEMENT_3D('',#252,#198,#199);
#166=AXIS2_PLACEMENT_3D('',#253,#200,#201);
#167=AXIS2_PLACEMENT_3D('',#255,#202,#203);
#168=AXIS2_PLACEMENT_3D('',#257,#204,#205);
#169=AXIS2_PLACEMENT_3D('',#258,#206,#207);
#170=AXIS2_PLACEMENT_3D('',#259,#208,#209);
#171=AXIS2_PLACEMENT_3D('',#261,#210,#211);
#172=AXIS2_PLACEMENT_3D('',#263,#213,#214);
#173=AXIS2_PLACEMENT_3D('',#266,#216,#217);
#174=AXIS2_PLACEMENT_3D('',#267,#218,#219);
#175=AXIS2_PLACEMENT_3D('',#269,#220,#221);
#176=AXIS2_PLACEMENT_3D('',#271,#222,#223);
#177=AXIS2_PLACEMENT_3D('',#272,#224,#225);
#178=AXIS2_PLACEMENT_3D('',#273,#226,#227);
#179=AXIS2_PLACEMENT_3D('',#275,#228,#229);
#180=AXIS2_PLACEMENT_3D('',#277,#231,#232);
#181=AXIS2_PLACEMENT_3D('',#280,#234,#235);
#182=AXIS2_PLACEMENT_3D('',#281,#236,#237);
#183=AXIS2_PLACEMENT_3D('',#283,#239,#240);
#184=AXIS2_PLACEMENT_3D('',#284,#241,#242);
#185=DIRECTION('axis',(0.,0.,1.));
#186=DIRECTION('refdir',(1.,0.,0.));
#187=DIRECTION('axis',(0.,0.,1.));
#188=DIRECTION('refdir',(1.,0.,0.));
#189=DIRECTION('center_axis',(0.,0.,-1.));
#190=DIRECTION('ref_axis',(-1.,0.,0.));
#191=DIRECTION('center_axis',(0.,0.,1.));
#192=DIRECTION('ref_axis',(1.,0.,0.));
#193=DIRECTION('center_axis',(0.,0.,1.));
#194=DIRECTION('ref_axis',(-1.,0.,0.));
#195=DIRECTION('center_axis',(0.,0.,1.));
#196=DIRECTION('ref_axis',(1.,0.,0.));
#197=DIRECTION('',(0.,0.,-1.));
#198=DIRECTION('center_axis',(0.,0.,1.));
#199=DIRECTION('ref_axis',(1.,0.,0.));
#200=DIRECTION('center_axis',(0.,0.,-1.));
#201=DIRECTION('ref_axis',(-1.,0.,0.));
#202=DIRECTION('center_axis',(0.,0.,-1.));
#203=DIRECTION('ref_axis',(1.,-6.12323399573676E-17,0.));
#204=DIRECTION('center_axis',(-1.22464679914735E-16,-1.,0.));
#205=DIRECTION('ref_axis',(1.,-1.22464679914735E-16,0.));
#206=DIRECTION('center_axis',(0.,0.,1.));
#207=DIRECTION('ref_axis',(1.,0.,0.));
#208=DIRECTION('center_axis',(0.,0.,1.));
#209=DIRECTION('ref_axis',(-1.,0.,0.));
#210=DIRECTION('center_axis',(0.,0.,-1.));
#211=DIRECTION('ref_axis',(1.,0.,0.));
#212=DIRECTION('',(0.0871557427476511,-1.06735001383221E-17,0.996194698091746));
#213=DIRECTION('center_axis',(0.,0.,-1.));
#214=DIRECTION('ref_axis',(-1.,0.,0.));
#215=DIRECTION('',(0.,0.,1.));
#216=DIRECTION('center_axis',(0.,0.,-1.));
#217=DIRECTION('ref_axis',(1.,0.,0.));
#218=DIRECTION('center_axis',(0.,0.,-1.));
#219=DIRECTION('ref_axis',(-1.,0.,0.));
#220=DIRECTION('center_axis',(0.,0.,1.));
#221=DIRECTION('ref_axis',(1.,-6.12323399573677E-17,0.));
#222=DIRECTION('center_axis',(-1.22464679914735E-16,-1.,0.));
#223=DIRECTION('ref_axis',(1.,-1.22464679914735E-16,0.));
#224=DIRECTION('center_axis',(0.,0.,-1.));
#225=DIRECTION('ref_axis',(1.,0.,0.));
#226=DIRECTION('center_axis',(0.,0.,1.));
#227=DIRECTION('ref_axis',(-1.,0.,0.));
#228=DIRECTION('center_axis',(0.,0.,-1.));
#229=DIRECTION('ref_axis',(1.,0.,0.));
#230=DIRECTION('',(0.0871557427476572,-1.06735001383229E-17,0.996194698091746));
#231=DIRECTION('center_axis',(0.,0.,-1.));
#232=DIRECTION('ref_axis',(-1.,0.,0.));
#233=DIRECTION('',(0.,0.,1.));
#234=DIRECTION('center_axis',(0.,0.,-1.));
#235=DIRECTION('ref_axis',(1.,0.,0.));
#236=DIRECTION('center_axis',(0.,0.,-1.));
#237=DIRECTION('ref_axis',(-1.,0.,0.));
#238=DIRECTION('',(-0.996194698091746,1.21998664834562E-16,0.0871557427476479));
#239=DIRECTION('center_axis',(0.,0.,1.));
#240=DIRECTION('ref_axis',(1.,0.,0.));
#241=DIRECTION('',(0.,0.,1.));
#242=DIRECTION('',(1.,0.,0.));
#243=CARTESIAN_POINT('',(0.,0.,0.));
#244=CARTESIAN_POINT('',(0.,0.,0.));
#245=CARTESIAN_POINT('Origin',(219.297524807583,0.,38.9765217651932));
#246=CARTESIAN_POINT('',(479.297524807583,1.59204083889156E-14,38.9765217651932));
#247=CARTESIAN_POINT('Origin',(349.297524807583,0.,38.9765217651932));
#248=CARTESIAN_POINT('Origin',(349.297524807583,0.,40.4765217651932));
#249=CARTESIAN_POINT('',(479.297524807583,1.59204083889156E-14,41.9765217651932));
#250=CARTESIAN_POINT('Origin',(349.297524807583,0.,41.9765217651932));
#251=CARTESIAN_POINT('',(479.297524807583,1.59204083889156E-14,40.4765217651932));
#252=CARTESIAN_POINT('Origin',(349.297524807583,0.,41.9765217651932));
#253=CARTESIAN_POINT('Origin',(349.297524807583,0.,-115.150259376636));
#254=CARTESIAN_POINT('',(456.729029373234,-1.31565648193909E-14,-116.719062746094));
#255=CARTESIAN_POINT('Origin',(349.297524807583,-6.57828240969546E-15,-116.719062746094));
#256=CARTESIAN_POINT('',(456.797524807583,-1.3164953090834E-14,-115.150259376636));
#257=CARTESIAN_POINT('Origin',(438.797524807583,-1.09605888523688E-14,-115.150259376636));
#258=CARTESIAN_POINT('Origin',(349.297524807583,0.,-115.150259376636));
#259=CARTESIAN_POINT('Origin',(349.297524807583,0.,-120.89266154915));
#260=CARTESIAN_POINT('',(455.93024877614,-1.30587424092457E-14,-125.849166749312));
#261=CARTESIAN_POINT('Origin',(349.297524807583,0.,-125.849166749312));
#262=CARTESIAN_POINT('',(456.363886791862,-1.31118477500399E-14,-120.89266154915));
#263=CARTESIAN_POINT('Origin',(349.297524807583,0.,-38.479817291898));
#264=CARTESIAN_POINT('',(456.797524807583,-1.3164953090834E-14,38.9765217651932));
#265=CARTESIAN_POINT('',(456.797524807583,-1.3164953090834E-14,-38.479817291898));
#266=CARTESIAN_POINT('Origin',(349.297524807583,0.,38.9765217651932));
#267=CARTESIAN_POINT('Origin',(349.297524807583,0.,-115.150259376636));
#268=CARTESIAN_POINT('',(458.721418769418,-1.340056214906E-14,-116.89337423159));
#269=CARTESIAN_POINT('Origin',(349.297524807583,-6.70028107453003E-15,-116.89337423159));
#270=CARTESIAN_POINT('',(458.797524807583,-1.34098824506635E-14,-115.150259376636));
#271=CARTESIAN_POINT('Origin',(438.797524807583,-1.09605888523688E-14,-115.150259376636));
#272=CARTESIAN_POINT('Origin',(349.297524807583,0.,-115.150259376636));
#273=CARTESIAN_POINT('Origin',(349.297524807583,0.,-121.023478234807));
#274=CARTESIAN_POINT('',(457.922638172324,-1.33027397389148E-14,-126.023478234807));
#275=CARTESIAN_POINT('Origin',(349.297524807583,0.,-126.023478234807));
#276=CARTESIAN_POINT('',(458.360081489953,-1.33563110947892E-14,-121.023478234807));
#277=CARTESIAN_POINT('Origin',(349.297524807583,0.,-38.5234782348068));
#278=CARTESIAN_POINT('',(458.797524807583,-1.34098824506635E-14,38.9765217651932));
#279=CARTESIAN_POINT('',(458.797524807583,-1.34098824506635E-14,-38.5234782348068));
#280=CARTESIAN_POINT('Origin',(349.297524807583,0.,38.9765217651932));
#281=CARTESIAN_POINT('Origin',(349.297524807583,0.,-125.936322492059));
#282=CARTESIAN_POINT('',(456.926443474232,-1.31807410740803E-14,-125.936322492059));
#283=CARTESIAN_POINT('Origin',(239.797524807583,0.,38.9765217651932));
#284=CARTESIAN_POINT('',(0.,0.,0.));
#285=UNCERTAINTY_MEASURE_WITH_UNIT(LENGTH_MEASURE(0.001),#291,
'DISTANCE_ACCURACY_VALUE',
'Maximum model space distance between geometric entities at asserted c
onnectivities');
#286=UNCERTAINTY_MEASURE_WITH_UNIT(LENGTH_MEASURE(0.001),#291,
'DISTANCE_ACCURACY_VALUE',
'Maximum model space distance between geometric entities at asserted c
onnectivities');
#287=UNCERTAINTY_MEASURE_WITH_UNIT(LENGTH_MEASURE(0.001),#291,
'DISTANCE_ACCURACY_VALUE',
'Maximum model space distance between geometric entities at asserted c
onnectivities');
#288=(
GEOMETRIC_REPRESENTATION_CONTEXT(3)
GLOBAL_UNCERTAINTY_ASSIGNED_CONTEXT((#285))
GLOBAL_UNIT_ASSIGNED_CONTEXT((#291,#292,#293))
REPRESENTATION_CONTEXT('','3D')
);
#289=(
GEOMETRIC_REPRESENTATION_CONTEXT(3)
GLOBAL_UNCERTAINTY_ASSIGNED_CONTEXT((#286))
GLOBAL_UNIT_ASSIGNED_CONTEXT((#291,#292,#293))
REPRESENTATION_CONTEXT('','3D')
);
#290=(
GEOMETRIC_REPRESENTATION_CONTEXT(3)
GLOBAL_UNCERTAINTY_ASSIGNED_CONTEXT((#287))
GLOBAL_UNIT_ASSIGNED_CONTEXT((#291,#292,#293))
REPRESENTATION_CONTEXT('','3D')
);
#291=(
LENGTH_UNIT()
NAMED_UNIT(*)
SI_UNIT(.CENTI.,.METRE.)
);
#292=(
NAMED_UNIT(*)
PLANE_ANGLE_UNIT()
SI_UNIT($,.RADIAN.)
);
#293=(
NAMED_UNIT(*)
SI_UNIT($,.STERADIAN.)
SOLID_ANGLE_UNIT()
);
#294=SHAPE_DEFINITION_REPRESENTATION(#296,#299);
#295=SHAPE_DEFINITION_REPRESENTATION(#297,#300);
#296=PRODUCT_DEFINITION_SHAPE('',$,#302);
#297=PRODUCT_DEFINITION_SHAPE('',$,#303);
#298=PRODUCT_DEFINITION_SHAPE($,$,#18);
#299=SHAPE_REPRESENTATION('',(#159,#184),#288);
#300=SHAPE_REPRESENTATION('',(#160),#289);
#301=PRODUCT_DEFINITION_CONTEXT('part definition',#309,'design');
#302=PRODUCT_DEFINITION('Product','Product',#304,#301);
#303=PRODUCT_DEFINITION('*S2','*S2',#305,#301);
#304=PRODUCT_DEFINITION_FORMATION('',$,#311);
#305=PRODUCT_DEFINITION_FORMATION('',$,#312);
#306=PRODUCT_RELATED_PRODUCT_CATEGORY('Product','Product',(#311));
#307=PRODUCT_RELATED_PRODUCT_CATEGORY('*S2','*S2',(#312));
#308=APPLICATION_PROTOCOL_DEFINITION('international standard',
'automotive_design',2009,#309);
#309=APPLICATION_CONTEXT(
'Core Data for Automotive Mechanical Design Process');
#310=PRODUCT_CONTEXT('part definition',#309,'mechanical');
#311=PRODUCT('Product','Product',$,(#310));
#312=PRODUCT('*S2','*S2',$,(#310));
#313=PRESENTATION_STYLE_ASSIGNMENT((#315));
#314=PRESENTATION_STYLE_ASSIGNMENT((#316));
#315=SURFACE_STYLE_USAGE(.BOTH.,#317);
#316=SURFACE_STYLE_USAGE(.BOTH.,#318);
#317=SURFACE_SIDE_STYLE('',(#319));
#318=SURFACE_SIDE_STYLE('',(#320));
#319=SURFACE_STYLE_FILL_AREA(#321);
#320=SURFACE_STYLE_FILL_AREA(#322);
#321=FILL_AREA_STYLE('',(#323));
#322=FILL_AREA_STYLE('',(#324));
#323=FILL_AREA_STYLE_COLOUR('',#325);
#324=FILL_AREA_STYLE_COLOUR('',#326);
#325=COLOUR_RGB('',0.8,0.8,0.8);
#326=COLOUR_RGB('',0.870588235294118,0.870588235294118,0.870588235294118);
ENDSEC;
END-ISO-10303-21;
