ISO-10303-21;
HEADER;
/* Generated by software containing ST-Developer
 * from STEP Tools, Inc. (www.steptools.com) 
 */

FILE_DESCRIPTION(
/* description */ (''),
/* implementation_level */ '2;1');

FILE_NAME(
/* name */ '08001.125X_3D.stp',
/* time_stamp */ '2024-12-11T14:17:50+01:00',
/* author */ ('CAD'),
/* organization */ (''),
/* preprocessor_version */ 'ST-DEVELOPER v20',
/* originating_system */ 'AutoCAD Mechanical',
/* authorisation */ '');

FILE_SCHEMA (('AUTOMOTIVE_DESIGN { 1 0 10303 214 3 1 1 }'));
ENDSEC;

DATA;
#10=MECHANICAL_DESIGN_GEOMETRIC_PRESENTATION_REPRESENTATION('',(#25,#26),
#330);
#11=PRESENTATION_LAYER_ASSIGNMENT('3','BLECH',(#27));
#12=PRESENTATION_LAYER_ASSIGNMENT('2','ROHR',(#28));
#13=SHAPE_REPRESENTATION_RELATIONSHIP('SRR','None',#339,#14);
#14=ADVANCED_BREP_SHAPE_REPRESENTATION('',(#27,#28),#328);
#15=ITEM_DEFINED_TRANSFORMATION($,$,#180,#208);
#16=(
REPRESENTATION_RELATIONSHIP($,$,#340,#339)
REPRESENTATION_RELATIONSHIP_WITH_TRANSFORMATION(#15)
SHAPE_REPRESENTATION_RELATIONSHIP()
);
#17=CONTEXT_DEPENDENT_SHAPE_REPRESENTATION(#16,#338);
#18=NEXT_ASSEMBLY_USAGE_OCCURRENCE('10CD','10CD','10CD',#342,#343,
'10CD');
#19=FACE_BOUND('',#52,.T.);
#20=CONICAL_SURFACE('',#198,64.600317905519,0.0872664625997137);
#21=CONICAL_SURFACE('',#200,64.9911622763609,1.48352986419517);
#22=CONICAL_SURFACE('',#202,66.0946099526566,0.0872664625997123);
#23=TOROIDAL_SURFACE('',#186,53.6000000000189,12.8999999999811);
#24=TOROIDAL_SURFACE('',#192,53.6000000000103,11.3999999999898);
#25=STYLED_ITEM('',(#353),#27);
#26=STYLED_ITEM('',(#354),#28);
#27=MANIFOLD_SOLID_BREP('2C87',#177);
#28=MANIFOLD_SOLID_BREP('2C97',#178);
#29=PLANE('',#184);
#30=PLANE('',#185);
#31=PLANE('',#203);
#32=FACE_OUTER_BOUND('',#43,.T.);
#33=FACE_OUTER_BOUND('',#44,.T.);
#34=FACE_OUTER_BOUND('',#45,.T.);
#35=FACE_OUTER_BOUND('',#46,.T.);
#36=FACE_OUTER_BOUND('',#47,.T.);
#37=FACE_OUTER_BOUND('',#48,.T.);
#38=FACE_OUTER_BOUND('',#49,.T.);
#39=FACE_OUTER_BOUND('',#50,.T.);
#40=FACE_OUTER_BOUND('',#51,.T.);
#41=FACE_OUTER_BOUND('',#53,.T.);
#42=FACE_OUTER_BOUND('',#54,.T.);
#43=EDGE_LOOP('',(#119,#120,#121,#122));
#44=EDGE_LOOP('',(#123));
#45=EDGE_LOOP('',(#124));
#46=EDGE_LOOP('',(#125,#126,#127,#128,#129,#130));
#47=EDGE_LOOP('',(#131,#132,#133,#134,#135,#136));
#48=EDGE_LOOP('',(#137,#138,#139,#140,#141));
#49=EDGE_LOOP('',(#142,#143,#144,#145));
#50=EDGE_LOOP('',(#146,#147,#148,#149,#150));
#51=EDGE_LOOP('',(#151));
#52=EDGE_LOOP('',(#152));
#53=EDGE_LOOP('',(#153,#154,#155,#156,#157));
#54=EDGE_LOOP('',(#158,#159,#160,#161,#162));
#55=LINE('',#281,#61);
#56=LINE('',#307,#62);
#57=LINE('',#311,#63);
#58=LINE('',#314,#64);
#59=LINE('',#321,#65);
#60=LINE('',#323,#66);
#61=VECTOR('',#217,78.5);
#62=VECTOR('',#250,64.600317905519);
#63=VECTOR('',#255,64.9911622763609);
#64=VECTOR('',#260,66.0946099526566);
#65=VECTOR('',#269,65.0000000000001);
#66=VECTOR('',#272,66.5);
#67=CIRCLE('',#182,78.5);
#68=CIRCLE('',#183,78.5);
#69=CIRCLE('',#187,66.5);
#70=CIRCLE('',#188,12.8999999999811);
#71=CIRCLE('',#189,66.4509116053836);
#72=CIRCLE('',#190,66.4509116053836);
#73=CIRCLE('',#191,66.5);
#74=CIRCLE('',#193,65.0000000000001);
#75=CIRCLE('',#194,65.0000000000001);
#76=CIRCLE('',#195,11.3999999999898);
#77=CIRCLE('',#196,64.956619558246);
#78=CIRCLE('',#197,64.956619558246);
#79=CIRCLE('',#199,64.2440162527921);
#80=CIRCLE('',#201,65.7383082999297);
#81=CIRCLE('',#204,66.5);
#82=CIRCLE('',#205,65.);
#83=VERTEX_POINT('',#278);
#84=VERTEX_POINT('',#280);
#85=VERTEX_POINT('',#286);
#86=VERTEX_POINT('',#287);
#87=VERTEX_POINT('',#289);
#88=VERTEX_POINT('',#291);
#89=VERTEX_POINT('',#296);
#90=VERTEX_POINT('',#297);
#91=VERTEX_POINT('',#300);
#92=VERTEX_POINT('',#302);
#93=VERTEX_POINT('',#306);
#94=VERTEX_POINT('',#310);
#95=VERTEX_POINT('',#316);
#96=VERTEX_POINT('',#318);
#97=EDGE_CURVE('',#83,#83,#67,.T.);
#98=EDGE_CURVE('',#83,#84,#55,.T.);
#99=EDGE_CURVE('',#84,#84,#68,.T.);
#100=EDGE_CURVE('',#85,#86,#69,.T.);
#101=EDGE_CURVE('',#85,#87,#70,.T.);
#102=EDGE_CURVE('',#87,#88,#71,.T.);
#103=EDGE_CURVE('',#88,#87,#72,.T.);
#104=EDGE_CURVE('',#86,#85,#73,.T.);
#105=EDGE_CURVE('',#89,#90,#74,.T.);
#106=EDGE_CURVE('',#90,#89,#75,.T.);
#107=EDGE_CURVE('',#89,#91,#76,.T.);
#108=EDGE_CURVE('',#92,#91,#77,.T.);
#109=EDGE_CURVE('',#91,#92,#78,.T.);
#110=EDGE_CURVE('',#92,#93,#56,.T.);
#111=EDGE_CURVE('',#93,#93,#79,.T.);
#112=EDGE_CURVE('',#93,#94,#57,.T.);
#113=EDGE_CURVE('',#94,#94,#80,.T.);
#114=EDGE_CURVE('',#88,#94,#58,.T.);
#115=EDGE_CURVE('',#95,#95,#81,.T.);
#116=EDGE_CURVE('',#96,#96,#82,.T.);
#117=EDGE_CURVE('',#96,#90,#59,.T.);
#118=EDGE_CURVE('',#95,#86,#60,.T.);
#119=ORIENTED_EDGE('',*,*,#97,.F.);
#120=ORIENTED_EDGE('',*,*,#98,.T.);
#121=ORIENTED_EDGE('',*,*,#99,.T.);
#122=ORIENTED_EDGE('',*,*,#98,.F.);
#123=ORIENTED_EDGE('',*,*,#97,.T.);
#124=ORIENTED_EDGE('',*,*,#99,.F.);
#125=ORIENTED_EDGE('',*,*,#100,.F.);
#126=ORIENTED_EDGE('',*,*,#101,.T.);
#127=ORIENTED_EDGE('',*,*,#102,.T.);
#128=ORIENTED_EDGE('',*,*,#103,.T.);
#129=ORIENTED_EDGE('',*,*,#101,.F.);
#130=ORIENTED_EDGE('',*,*,#104,.F.);
#131=ORIENTED_EDGE('',*,*,#105,.T.);
#132=ORIENTED_EDGE('',*,*,#106,.T.);
#133=ORIENTED_EDGE('',*,*,#107,.T.);
#134=ORIENTED_EDGE('',*,*,#108,.F.);
#135=ORIENTED_EDGE('',*,*,#109,.F.);
#136=ORIENTED_EDGE('',*,*,#107,.F.);
#137=ORIENTED_EDGE('',*,*,#109,.T.);
#138=ORIENTED_EDGE('',*,*,#110,.T.);
#139=ORIENTED_EDGE('',*,*,#111,.F.);
#140=ORIENTED_EDGE('',*,*,#110,.F.);
#141=ORIENTED_EDGE('',*,*,#108,.T.);
#142=ORIENTED_EDGE('',*,*,#111,.T.);
#143=ORIENTED_EDGE('',*,*,#112,.T.);
#144=ORIENTED_EDGE('',*,*,#113,.F.);
#145=ORIENTED_EDGE('',*,*,#112,.F.);
#146=ORIENTED_EDGE('',*,*,#102,.F.);
#147=ORIENTED_EDGE('',*,*,#103,.F.);
#148=ORIENTED_EDGE('',*,*,#114,.T.);
#149=ORIENTED_EDGE('',*,*,#113,.T.);
#150=ORIENTED_EDGE('',*,*,#114,.F.);
#151=ORIENTED_EDGE('',*,*,#115,.T.);
#152=ORIENTED_EDGE('',*,*,#116,.F.);
#153=ORIENTED_EDGE('',*,*,#116,.T.);
#154=ORIENTED_EDGE('',*,*,#117,.T.);
#155=ORIENTED_EDGE('',*,*,#105,.F.);
#156=ORIENTED_EDGE('',*,*,#106,.F.);
#157=ORIENTED_EDGE('',*,*,#117,.F.);
#158=ORIENTED_EDGE('',*,*,#115,.F.);
#159=ORIENTED_EDGE('',*,*,#118,.T.);
#160=ORIENTED_EDGE('',*,*,#104,.T.);
#161=ORIENTED_EDGE('',*,*,#100,.T.);
#162=ORIENTED_EDGE('',*,*,#118,.F.);
#163=CYLINDRICAL_SURFACE('',#181,78.5);
#164=CYLINDRICAL_SURFACE('',#206,65.0000000000001);
#165=CYLINDRICAL_SURFACE('',#207,66.5);
#166=ADVANCED_FACE('',(#32),#163,.T.);
#167=ADVANCED_FACE('',(#33),#29,.T.);
#168=ADVANCED_FACE('',(#34),#30,.T.);
#169=ADVANCED_FACE('',(#35),#23,.T.);
#170=ADVANCED_FACE('',(#36),#24,.F.);
#171=ADVANCED_FACE('',(#37),#20,.F.);
#172=ADVANCED_FACE('',(#38),#21,.F.);
#173=ADVANCED_FACE('',(#39),#22,.T.);
#174=ADVANCED_FACE('',(#40,#19),#31,.T.);
#175=ADVANCED_FACE('',(#41),#164,.F.);
#176=ADVANCED_FACE('',(#42),#165,.T.);
#177=CLOSED_SHELL('',(#166,#167,#168));
#178=CLOSED_SHELL('',(#169,#170,#171,#172,#173,#174,#175,#176));
#179=AXIS2_PLACEMENT_3D('',#275,#209,#210);
#180=AXIS2_PLACEMENT_3D('',#276,#211,#212);
#181=AXIS2_PLACEMENT_3D('',#277,#213,#214);
#182=AXIS2_PLACEMENT_3D('',#279,#215,#216);
#183=AXIS2_PLACEMENT_3D('',#282,#218,#219);
#184=AXIS2_PLACEMENT_3D('',#283,#220,#221);
#185=AXIS2_PLACEMENT_3D('',#284,#222,#223);
#186=AXIS2_PLACEMENT_3D('',#285,#224,#225);
#187=AXIS2_PLACEMENT_3D('',#288,#226,#227);
#188=AXIS2_PLACEMENT_3D('',#290,#228,#229);
#189=AXIS2_PLACEMENT_3D('',#292,#230,#231);
#190=AXIS2_PLACEMENT_3D('',#293,#232,#233);
#191=AXIS2_PLACEMENT_3D('',#294,#234,#235);
#192=AXIS2_PLACEMENT_3D('',#295,#236,#237);
#193=AXIS2_PLACEMENT_3D('',#298,#238,#239);
#194=AXIS2_PLACEMENT_3D('',#299,#240,#241);
#195=AXIS2_PLACEMENT_3D('',#301,#242,#243);
#196=AXIS2_PLACEMENT_3D('',#303,#244,#245);
#197=AXIS2_PLACEMENT_3D('',#304,#246,#247);
#198=AXIS2_PLACEMENT_3D('',#305,#248,#249);
#199=AXIS2_PLACEMENT_3D('',#308,#251,#252);
#200=AXIS2_PLACEMENT_3D('',#309,#253,#254);
#201=AXIS2_PLACEMENT_3D('',#312,#256,#257);
#202=AXIS2_PLACEMENT_3D('',#313,#258,#259);
#203=AXIS2_PLACEMENT_3D('',#315,#261,#262);
#204=AXIS2_PLACEMENT_3D('',#317,#263,#264);
#205=AXIS2_PLACEMENT_3D('',#319,#265,#266);
#206=AXIS2_PLACEMENT_3D('',#320,#267,#268);
#207=AXIS2_PLACEMENT_3D('',#322,#270,#271);
#208=AXIS2_PLACEMENT_3D('',#324,#273,#274);
#209=DIRECTION('axis',(0.,0.,1.));
#210=DIRECTION('refdir',(1.,0.,0.));
#211=DIRECTION('axis',(0.,0.,1.));
#212=DIRECTION('refdir',(1.,0.,0.));
#213=DIRECTION('center_axis',(0.,0.,1.));
#214=DIRECTION('ref_axis',(-1.,0.,0.));
#215=DIRECTION('center_axis',(0.,0.,1.));
#216=DIRECTION('ref_axis',(1.,0.,0.));
#217=DIRECTION('',(0.,0.,-1.));
#218=DIRECTION('center_axis',(0.,0.,1.));
#219=DIRECTION('ref_axis',(1.,0.,0.));
#220=DIRECTION('center_axis',(0.,0.,1.));
#221=DIRECTION('ref_axis',(1.,0.,0.));
#222=DIRECTION('center_axis',(0.,0.,-1.));
#223=DIRECTION('ref_axis',(-1.,0.,0.));
#224=DIRECTION('center_axis',(0.,0.,1.));
#225=DIRECTION('ref_axis',(1.,0.,0.));
#226=DIRECTION('center_axis',(0.,0.,1.));
#227=DIRECTION('ref_axis',(1.,0.,0.));
#228=DIRECTION('center_axis',(1.22464679914735E-16,-1.,0.));
#229=DIRECTION('ref_axis',(-1.,-1.22464679914735E-16,0.));
#230=DIRECTION('center_axis',(0.,0.,1.));
#231=DIRECTION('ref_axis',(1.,0.,0.));
#232=DIRECTION('center_axis',(0.,0.,1.));
#233=DIRECTION('ref_axis',(1.,0.,0.));
#234=DIRECTION('center_axis',(0.,0.,1.));
#235=DIRECTION('ref_axis',(1.,0.,0.));
#236=DIRECTION('center_axis',(0.,0.,1.));
#237=DIRECTION('ref_axis',(1.,0.,0.));
#238=DIRECTION('center_axis',(0.,0.,1.));
#239=DIRECTION('ref_axis',(1.,0.,0.));
#240=DIRECTION('center_axis',(0.,0.,1.));
#241=DIRECTION('ref_axis',(1.,0.,0.));
#242=DIRECTION('center_axis',(1.22464679914735E-16,-1.,0.));
#243=DIRECTION('ref_axis',(-1.,-1.22464679914735E-16,0.));
#244=DIRECTION('center_axis',(0.,0.,1.));
#245=DIRECTION('ref_axis',(1.,0.,0.));
#246=DIRECTION('center_axis',(0.,0.,1.));
#247=DIRECTION('ref_axis',(1.,0.,0.));
#248=DIRECTION('center_axis',(0.,0.,1.));
#249=DIRECTION('ref_axis',(-1.,0.,0.));
#250=DIRECTION('',(-0.0871557427476554,-1.06735001383226E-17,-0.996194698091746));
#251=DIRECTION('center_axis',(0.,0.,1.));
#252=DIRECTION('ref_axis',(1.,0.,0.));
#253=DIRECTION('center_axis',(0.,0.,-1.));
#254=DIRECTION('ref_axis',(-1.,0.,0.));
#255=DIRECTION('',(0.996194698091745,1.21998664834562E-16,-0.087155742747668));
#256=DIRECTION('center_axis',(0.,0.,1.));
#257=DIRECTION('ref_axis',(1.,0.,0.));
#258=DIRECTION('center_axis',(0.,0.,1.));
#259=DIRECTION('ref_axis',(-1.,0.,0.));
#260=DIRECTION('',(-0.087155742747654,-1.06735001383225E-17,-0.996194698091746));
#261=DIRECTION('center_axis',(0.,0.,1.));
#262=DIRECTION('ref_axis',(1.,0.,0.));
#263=DIRECTION('center_axis',(0.,0.,1.));
#264=DIRECTION('ref_axis',(1.,0.,0.));
#265=DIRECTION('center_axis',(0.,0.,1.));
#266=DIRECTION('ref_axis',(1.,0.,0.));
#267=DIRECTION('center_axis',(0.,0.,1.));
#268=DIRECTION('ref_axis',(-1.,0.,0.));
#269=DIRECTION('',(0.,0.,-1.));
#270=DIRECTION('center_axis',(0.,0.,1.));
#271=DIRECTION('ref_axis',(-1.,0.,0.));
#272=DIRECTION('',(0.,0.,-1.));
#273=DIRECTION('',(0.,0.,1.));
#274=DIRECTION('',(1.,0.,0.));
#275=CARTESIAN_POINT('',(0.,0.,0.));
#276=CARTESIAN_POINT('',(0.,0.,0.));
#277=CARTESIAN_POINT('Origin',(349.297524807583,0.,40.9765217651932));
#278=CARTESIAN_POINT('',(427.797524807583,9.61347737330672E-15,41.9765217651932));
#279=CARTESIAN_POINT('Origin',(349.297524807583,0.,41.9765217651932));
#280=CARTESIAN_POINT('',(427.797524807583,9.61347737330672E-15,39.9765217651932));
#281=CARTESIAN_POINT('',(427.797524807583,9.61347737330672E-15,40.9765217651932));
#282=CARTESIAN_POINT('Origin',(349.297524807583,0.,39.9765217651932));
#283=CARTESIAN_POINT('Origin',(349.297524807583,0.,41.9765217651932));
#284=CARTESIAN_POINT('Origin',(271.797524807583,0.,39.9765217651932));
#285=CARTESIAN_POINT('Origin',(349.297524807583,0.,-80.7540761009043));
#286=CARTESIAN_POINT('',(282.797524807583,0.,-80.7540761009029));
#287=CARTESIAN_POINT('',(415.797524807583,8.1439012143299E-15,-80.7540761009029));
#288=CARTESIAN_POINT('Origin',(349.297524807583,0.,-80.7540761009029));
#289=CARTESIAN_POINT('',(282.846613202199,0.,-81.8783851823476));
#290=CARTESIAN_POINT('Origin',(295.697524807564,-6.56410684343213E-15,-80.7540761009043));
#291=CARTESIAN_POINT('',(415.748436412966,8.13788961979567E-15,-81.8783851823476));
#292=CARTESIAN_POINT('Origin',(349.297524807583,0.,-81.8783851823476));
#293=CARTESIAN_POINT('Origin',(349.297524807583,0.,-81.8783851823476));
#294=CARTESIAN_POINT('Origin',(349.297524807583,0.,-80.7540761009029));
#295=CARTESIAN_POINT('Origin',(349.297524807583,0.,-80.7540761009041));
#296=CARTESIAN_POINT('',(284.297524807583,0.,-80.7540761009036));
#297=CARTESIAN_POINT('',(414.297524807583,7.9602041944578E-15,-80.7540761009036));
#298=CARTESIAN_POINT('Origin',(349.297524807583,0.,-80.7540761009036));
#299=CARTESIAN_POINT('Origin',(349.297524807583,0.,-80.7540761009036));
#300=CARTESIAN_POINT('',(284.340905249337,0.,-81.7476515682269));
#301=CARTESIAN_POINT('Origin',(295.697524807573,-6.56410684343107E-15,-80.7540761009041));
#302=CARTESIAN_POINT('',(414.254144365829,7.95489162254383E-15,-81.7476515682269));
#303=CARTESIAN_POINT('Origin',(349.297524807583,0.,-81.7476515682269));
#304=CARTESIAN_POINT('Origin',(349.297524807583,0.,-81.7476515682269));
#305=CARTESIAN_POINT('Origin',(349.297524807583,0.,-85.8201980944561));
#306=CARTESIAN_POINT('',(413.541541060375,7.86762288683524E-15,-89.8927446206853));
#307=CARTESIAN_POINT('',(413.897842713102,7.91125725468953E-15,-85.8201980944561));
#308=CARTESIAN_POINT('Origin',(349.297524807583,0.,-89.8927446206853));
#309=CARTESIAN_POINT('Origin',(349.297524807583,0.,-89.9581114277461));
#310=CARTESIAN_POINT('',(415.035833107513,8.05062088408707E-15,-90.0234782348069));
#311=CARTESIAN_POINT('',(414.288687083944,7.95912188546115E-15,-89.9581114277461));
#312=CARTESIAN_POINT('Origin',(349.297524807583,0.,-90.0234782348068));
#313=CARTESIAN_POINT('Origin',(349.297524807583,0.,-85.9509317085772));
#314=CARTESIAN_POINT('',(415.39213476024,8.09425525194137E-15,-85.9509317085772));
#315=CARTESIAN_POINT('Origin',(284.297524807583,0.,39.9765217651932));
#316=CARTESIAN_POINT('',(415.797524807583,8.1439012143299E-15,39.9765217651932));
#317=CARTESIAN_POINT('Origin',(349.297524807583,0.,39.9765217651932));
#318=CARTESIAN_POINT('',(414.297524807583,7.9602041944578E-15,39.9765217651932));
#319=CARTESIAN_POINT('Origin',(349.297524807583,0.,39.9765217651932));
#320=CARTESIAN_POINT('Origin',(349.297524807583,0.,4.61122283214478));
#321=CARTESIAN_POINT('',(414.297524807583,7.9602041944578E-15,4.61122283214478));
#322=CARTESIAN_POINT('Origin',(349.297524807583,0.,4.61122283214516));
#323=CARTESIAN_POINT('',(415.797524807583,8.1439012143299E-15,4.61122283214516));
#324=CARTESIAN_POINT('',(0.,0.,0.));
#325=UNCERTAINTY_MEASURE_WITH_UNIT(LENGTH_MEASURE(0.001),#331,
'DISTANCE_ACCURACY_VALUE',
'Maximum model space distance between geometric entities at asserted c
onnectivities');
#326=UNCERTAINTY_MEASURE_WITH_UNIT(LENGTH_MEASURE(0.001),#331,
'DISTANCE_ACCURACY_VALUE',
'Maximum model space distance between geometric entities at asserted c
onnectivities');
#327=UNCERTAINTY_MEASURE_WITH_UNIT(LENGTH_MEASURE(0.001),#331,
'DISTANCE_ACCURACY_VALUE',
'Maximum model space distance between geometric entities at asserted c
onnectivities');
#328=(
GEOMETRIC_REPRESENTATION_CONTEXT(3)
GLOBAL_UNCERTAINTY_ASSIGNED_CONTEXT((#325))
GLOBAL_UNIT_ASSIGNED_CONTEXT((#331,#332,#333))
REPRESENTATION_CONTEXT('','3D')
);
#329=(
GEOMETRIC_REPRESENTATION_CONTEXT(3)
GLOBAL_UNCERTAINTY_ASSIGNED_CONTEXT((#326))
GLOBAL_UNIT_ASSIGNED_CONTEXT((#331,#332,#333))
REPRESENTATION_CONTEXT('','3D')
);
#330=(
GEOMETRIC_REPRESENTATION_CONTEXT(3)
GLOBAL_UNCERTAINTY_ASSIGNED_CONTEXT((#327))
GLOBAL_UNIT_ASSIGNED_CONTEXT((#331,#332,#333))
REPRESENTATION_CONTEXT('','3D')
);
#331=(
LENGTH_UNIT()
NAMED_UNIT(*)
SI_UNIT(.CENTI.,.METRE.)
);
#332=(
NAMED_UNIT(*)
PLANE_ANGLE_UNIT()
SI_UNIT($,.RADIAN.)
);
#333=(
NAMED_UNIT(*)
SI_UNIT($,.STERADIAN.)
SOLID_ANGLE_UNIT()
);
#334=SHAPE_DEFINITION_REPRESENTATION(#336,#339);
#335=SHAPE_DEFINITION_REPRESENTATION(#337,#340);
#336=PRODUCT_DEFINITION_SHAPE('',$,#342);
#337=PRODUCT_DEFINITION_SHAPE('',$,#343);
#338=PRODUCT_DEFINITION_SHAPE($,$,#18);
#339=SHAPE_REPRESENTATION('',(#179,#208),#328);
#340=SHAPE_REPRESENTATION('',(#180),#329);
#341=PRODUCT_DEFINITION_CONTEXT('part definition',#349,'design');
#342=PRODUCT_DEFINITION('Product','Product',#344,#341);
#343=PRODUCT_DEFINITION('*S2','*S2',#345,#341);
#344=PRODUCT_DEFINITION_FORMATION('',$,#351);
#345=PRODUCT_DEFINITION_FORMATION('',$,#352);
#346=PRODUCT_RELATED_PRODUCT_CATEGORY('Product','Product',(#351));
#347=PRODUCT_RELATED_PRODUCT_CATEGORY('*S2','*S2',(#352));
#348=APPLICATION_PROTOCOL_DEFINITION('international standard',
'automotive_design',2009,#349);
#349=APPLICATION_CONTEXT(
'Core Data for Automotive Mechanical Design Process');
#350=PRODUCT_CONTEXT('part definition',#349,'mechanical');
#351=PRODUCT('Product','Product',$,(#350));
#352=PRODUCT('*S2','*S2',$,(#350));
#353=PRESENTATION_STYLE_ASSIGNMENT((#355));
#354=PRESENTATION_STYLE_ASSIGNMENT((#356));
#355=SURFACE_STYLE_USAGE(.BOTH.,#357);
#356=SURFACE_STYLE_USAGE(.BOTH.,#358);
#357=SURFACE_SIDE_STYLE('',(#359));
#358=SURFACE_SIDE_STYLE('',(#360));
#359=SURFACE_STYLE_FILL_AREA(#361);
#360=SURFACE_STYLE_FILL_AREA(#362);
#361=FILL_AREA_STYLE('',(#363));
#362=FILL_AREA_STYLE('',(#364));
#363=FILL_AREA_STYLE_COLOUR('',#365);
#364=FILL_AREA_STYLE_COLOUR('',#366);
#365=COLOUR_RGB('',0.8,0.8,0.8);
#366=COLOUR_RGB('',0.870588235294118,0.870588235294118,0.870588235294118);
ENDSEC;
END-ISO-10303-21;
