ISO-10303-21;
HEADER;
/* Generated by software containing ST-Developer
 * from STEP Tools, Inc. (www.steptools.com) 
 */

FILE_DESCRIPTION(
/* description */ (''),
/* implementation_level */ '2;1');

FILE_NAME(
/* name */ '08001.100X_3D.stp',
/* time_stamp */ '2024-12-11T14:17:48+01:00',
/* author */ ('CAD'),
/* organization */ (''),
/* preprocessor_version */ 'ST-DEVELOPER v20',
/* originating_system */ 'AutoCAD Mechanical',
/* authorisation */ '');

FILE_SCHEMA (('AUTOMOTIVE_DESIGN { 1 0 10303 214 3 1 1 }'));
ENDSEC;

DATA;
#10=MECHANICAL_DESIGN_GEOMETRIC_PRESENTATION_REPRESENTATION('',(#25,#26),
#330);
#11=PRESENTATION_LAYER_ASSIGNMENT('3','BLECH',(#27));
#12=PRESENTATION_LAYER_ASSIGNMENT('2','ROHR',(#28));
#13=SHAPE_REPRESENTATION_RELATIONSHIP('SRR','None',#339,#14);
#14=ADVANCED_BREP_SHAPE_REPRESENTATION('',(#27,#28),#328);
#15=ITEM_DEFINED_TRANSFORMATION($,$,#180,#208);
#16=(
REPRESENTATION_RELATIONSHIP($,$,#340,#339)
REPRESENTATION_RELATIONSHIP_WITH_TRANSFORMATION(#15)
SHAPE_REPRESENTATION_RELATIONSHIP()
);
#17=CONTEXT_DEPENDENT_SHAPE_REPRESENTATION(#16,#338);
#18=NEXT_ASSEMBLY_USAGE_OCCURRENCE('10CD','10CD','10CD',#342,#343,
'10CD');
#19=FACE_BOUND('',#64,.T.);
#20=CONICAL_SURFACE('',#198,49.2744886162812,0.0872664625997063);
#21=CONICAL_SURFACE('',#200,49.5855081308816,1.48352986419517);
#22=CONICAL_SURFACE('',#202,50.4699222539912,0.0872664625997167);
#23=TOROIDAL_SURFACE('',#186,39.4000000000102,11.3999999999898);
#24=TOROIDAL_SURFACE('',#192,39.4000000000174,10.1999999999826);
#25=STYLED_ITEM('',(#353),#27);
#26=STYLED_ITEM('',(#354),#28);
#27=MANIFOLD_SOLID_BREP('2B32',#177);
#28=MANIFOLD_SOLID_BREP('2B42',#178);
#29=LINE('',#284,#35);
#30=LINE('',#307,#36);
#31=LINE('',#311,#37);
#32=LINE('',#314,#38);
#33=LINE('',#321,#39);
#34=LINE('',#323,#40);
#35=VECTOR('',#223,60.);
#36=VECTOR('',#250,49.2744886162812);
#37=VECTOR('',#255,49.5855081308816);
#38=VECTOR('',#260,50.4699222539912);
#39=VECTOR('',#269,49.6);
#40=VECTOR('',#272,50.8);
#41=CYLINDRICAL_SURFACE('',#185,60.);
#42=CYLINDRICAL_SURFACE('',#206,49.6);
#43=CYLINDRICAL_SURFACE('',#207,50.8);
#44=FACE_OUTER_BOUND('',#55,.T.);
#45=FACE_OUTER_BOUND('',#56,.T.);
#46=FACE_OUTER_BOUND('',#57,.T.);
#47=FACE_OUTER_BOUND('',#58,.T.);
#48=FACE_OUTER_BOUND('',#59,.T.);
#49=FACE_OUTER_BOUND('',#60,.T.);
#50=FACE_OUTER_BOUND('',#61,.T.);
#51=FACE_OUTER_BOUND('',#62,.T.);
#52=FACE_OUTER_BOUND('',#63,.T.);
#53=FACE_OUTER_BOUND('',#65,.T.);
#54=FACE_OUTER_BOUND('',#66,.T.);
#55=EDGE_LOOP('',(#119));
#56=EDGE_LOOP('',(#120));
#57=EDGE_LOOP('',(#121,#122,#123,#124));
#58=EDGE_LOOP('',(#125,#126,#127,#128,#129,#130));
#59=EDGE_LOOP('',(#131,#132,#133,#134,#135,#136));
#60=EDGE_LOOP('',(#137,#138,#139,#140,#141));
#61=EDGE_LOOP('',(#142,#143,#144,#145));
#62=EDGE_LOOP('',(#146,#147,#148,#149,#150));
#63=EDGE_LOOP('',(#151));
#64=EDGE_LOOP('',(#152));
#65=EDGE_LOOP('',(#153,#154,#155,#156,#157));
#66=EDGE_LOOP('',(#158,#159,#160,#161,#162));
#67=CIRCLE('',#182,60.);
#68=CIRCLE('',#184,60.);
#69=CIRCLE('',#187,50.8);
#70=CIRCLE('',#188,11.3999999999898);
#71=CIRCLE('',#189,50.7566195582459);
#72=CIRCLE('',#190,50.7566195582459);
#73=CIRCLE('',#191,50.8);
#74=CIRCLE('',#193,49.6);
#75=CIRCLE('',#194,49.6);
#76=CIRCLE('',#195,10.1999999999826);
#77=CIRCLE('',#196,49.5611859205358);
#78=CIRCLE('',#197,49.5611859205358);
#79=CIRCLE('',#199,48.9877913120266);
#80=CIRCLE('',#201,50.1832249497366);
#81=CIRCLE('',#204,50.8);
#82=CIRCLE('',#205,49.6);
#83=VERTEX_POINT('',#278);
#84=VERTEX_POINT('',#281);
#85=VERTEX_POINT('',#286);
#86=VERTEX_POINT('',#287);
#87=VERTEX_POINT('',#289);
#88=VERTEX_POINT('',#291);
#89=VERTEX_POINT('',#296);
#90=VERTEX_POINT('',#297);
#91=VERTEX_POINT('',#300);
#92=VERTEX_POINT('',#302);
#93=VERTEX_POINT('',#306);
#94=VERTEX_POINT('',#310);
#95=VERTEX_POINT('',#316);
#96=VERTEX_POINT('',#318);
#97=EDGE_CURVE('',#83,#83,#67,.T.);
#98=EDGE_CURVE('',#84,#84,#68,.T.);
#99=EDGE_CURVE('',#83,#84,#29,.T.);
#100=EDGE_CURVE('',#85,#86,#69,.T.);
#101=EDGE_CURVE('',#85,#87,#70,.T.);
#102=EDGE_CURVE('',#87,#88,#71,.T.);
#103=EDGE_CURVE('',#88,#87,#72,.T.);
#104=EDGE_CURVE('',#86,#85,#73,.T.);
#105=EDGE_CURVE('',#89,#90,#74,.T.);
#106=EDGE_CURVE('',#90,#89,#75,.T.);
#107=EDGE_CURVE('',#89,#91,#76,.T.);
#108=EDGE_CURVE('',#92,#91,#77,.T.);
#109=EDGE_CURVE('',#91,#92,#78,.T.);
#110=EDGE_CURVE('',#92,#93,#30,.T.);
#111=EDGE_CURVE('',#93,#93,#79,.T.);
#112=EDGE_CURVE('',#93,#94,#31,.T.);
#113=EDGE_CURVE('',#94,#94,#80,.T.);
#114=EDGE_CURVE('',#88,#94,#32,.T.);
#115=EDGE_CURVE('',#95,#95,#81,.T.);
#116=EDGE_CURVE('',#96,#96,#82,.T.);
#117=EDGE_CURVE('',#96,#90,#33,.T.);
#118=EDGE_CURVE('',#95,#86,#34,.T.);
#119=ORIENTED_EDGE('',*,*,#97,.T.);
#120=ORIENTED_EDGE('',*,*,#98,.F.);
#121=ORIENTED_EDGE('',*,*,#97,.F.);
#122=ORIENTED_EDGE('',*,*,#99,.T.);
#123=ORIENTED_EDGE('',*,*,#98,.T.);
#124=ORIENTED_EDGE('',*,*,#99,.F.);
#125=ORIENTED_EDGE('',*,*,#100,.F.);
#126=ORIENTED_EDGE('',*,*,#101,.T.);
#127=ORIENTED_EDGE('',*,*,#102,.T.);
#128=ORIENTED_EDGE('',*,*,#103,.T.);
#129=ORIENTED_EDGE('',*,*,#101,.F.);
#130=ORIENTED_EDGE('',*,*,#104,.F.);
#131=ORIENTED_EDGE('',*,*,#105,.T.);
#132=ORIENTED_EDGE('',*,*,#106,.T.);
#133=ORIENTED_EDGE('',*,*,#107,.T.);
#134=ORIENTED_EDGE('',*,*,#108,.F.);
#135=ORIENTED_EDGE('',*,*,#109,.F.);
#136=ORIENTED_EDGE('',*,*,#107,.F.);
#137=ORIENTED_EDGE('',*,*,#109,.T.);
#138=ORIENTED_EDGE('',*,*,#110,.T.);
#139=ORIENTED_EDGE('',*,*,#111,.F.);
#140=ORIENTED_EDGE('',*,*,#110,.F.);
#141=ORIENTED_EDGE('',*,*,#108,.T.);
#142=ORIENTED_EDGE('',*,*,#111,.T.);
#143=ORIENTED_EDGE('',*,*,#112,.T.);
#144=ORIENTED_EDGE('',*,*,#113,.F.);
#145=ORIENTED_EDGE('',*,*,#112,.F.);
#146=ORIENTED_EDGE('',*,*,#102,.F.);
#147=ORIENTED_EDGE('',*,*,#103,.F.);
#148=ORIENTED_EDGE('',*,*,#114,.T.);
#149=ORIENTED_EDGE('',*,*,#113,.T.);
#150=ORIENTED_EDGE('',*,*,#114,.F.);
#151=ORIENTED_EDGE('',*,*,#115,.T.);
#152=ORIENTED_EDGE('',*,*,#116,.F.);
#153=ORIENTED_EDGE('',*,*,#116,.T.);
#154=ORIENTED_EDGE('',*,*,#117,.T.);
#155=ORIENTED_EDGE('',*,*,#105,.F.);
#156=ORIENTED_EDGE('',*,*,#106,.F.);
#157=ORIENTED_EDGE('',*,*,#117,.F.);
#158=ORIENTED_EDGE('',*,*,#115,.F.);
#159=ORIENTED_EDGE('',*,*,#118,.T.);
#160=ORIENTED_EDGE('',*,*,#104,.T.);
#161=ORIENTED_EDGE('',*,*,#100,.T.);
#162=ORIENTED_EDGE('',*,*,#118,.F.);
#163=PLANE('',#181);
#164=PLANE('',#183);
#165=PLANE('',#203);
#166=ADVANCED_FACE('',(#44),#163,.T.);
#167=ADVANCED_FACE('',(#45),#164,.T.);
#168=ADVANCED_FACE('',(#46),#41,.T.);
#169=ADVANCED_FACE('',(#47),#23,.T.);
#170=ADVANCED_FACE('',(#48),#24,.F.);
#171=ADVANCED_FACE('',(#49),#20,.F.);
#172=ADVANCED_FACE('',(#50),#21,.F.);
#173=ADVANCED_FACE('',(#51),#22,.T.);
#174=ADVANCED_FACE('',(#52,#19),#165,.T.);
#175=ADVANCED_FACE('',(#53),#42,.F.);
#176=ADVANCED_FACE('',(#54),#43,.T.);
#177=CLOSED_SHELL('',(#166,#167,#168));
#178=CLOSED_SHELL('',(#169,#170,#171,#172,#173,#174,#175,#176));
#179=AXIS2_PLACEMENT_3D('',#275,#209,#210);
#180=AXIS2_PLACEMENT_3D('',#276,#211,#212);
#181=AXIS2_PLACEMENT_3D('',#277,#213,#214);
#182=AXIS2_PLACEMENT_3D('',#279,#215,#216);
#183=AXIS2_PLACEMENT_3D('',#280,#217,#218);
#184=AXIS2_PLACEMENT_3D('',#282,#219,#220);
#185=AXIS2_PLACEMENT_3D('',#283,#221,#222);
#186=AXIS2_PLACEMENT_3D('',#285,#224,#225);
#187=AXIS2_PLACEMENT_3D('',#288,#226,#227);
#188=AXIS2_PLACEMENT_3D('',#290,#228,#229);
#189=AXIS2_PLACEMENT_3D('',#292,#230,#231);
#190=AXIS2_PLACEMENT_3D('',#293,#232,#233);
#191=AXIS2_PLACEMENT_3D('',#294,#234,#235);
#192=AXIS2_PLACEMENT_3D('',#295,#236,#237);
#193=AXIS2_PLACEMENT_3D('',#298,#238,#239);
#194=AXIS2_PLACEMENT_3D('',#299,#240,#241);
#195=AXIS2_PLACEMENT_3D('',#301,#242,#243);
#196=AXIS2_PLACEMENT_3D('',#303,#244,#245);
#197=AXIS2_PLACEMENT_3D('',#304,#246,#247);
#198=AXIS2_PLACEMENT_3D('',#305,#248,#249);
#199=AXIS2_PLACEMENT_3D('',#308,#251,#252);
#200=AXIS2_PLACEMENT_3D('',#309,#253,#254);
#201=AXIS2_PLACEMENT_3D('',#312,#256,#257);
#202=AXIS2_PLACEMENT_3D('',#313,#258,#259);
#203=AXIS2_PLACEMENT_3D('',#315,#261,#262);
#204=AXIS2_PLACEMENT_3D('',#317,#263,#264);
#205=AXIS2_PLACEMENT_3D('',#319,#265,#266);
#206=AXIS2_PLACEMENT_3D('',#320,#267,#268);
#207=AXIS2_PLACEMENT_3D('',#322,#270,#271);
#208=AXIS2_PLACEMENT_3D('',#324,#273,#274);
#209=DIRECTION('axis',(0.,0.,1.));
#210=DIRECTION('refdir',(1.,0.,0.));
#211=DIRECTION('axis',(0.,0.,1.));
#212=DIRECTION('refdir',(1.,0.,0.));
#213=DIRECTION('center_axis',(0.,0.,1.));
#214=DIRECTION('ref_axis',(1.,0.,0.));
#215=DIRECTION('center_axis',(0.,0.,1.));
#216=DIRECTION('ref_axis',(1.,0.,0.));
#217=DIRECTION('center_axis',(0.,0.,-1.));
#218=DIRECTION('ref_axis',(-1.,0.,0.));
#219=DIRECTION('center_axis',(0.,0.,1.));
#220=DIRECTION('ref_axis',(1.,0.,0.));
#221=DIRECTION('center_axis',(0.,0.,1.));
#222=DIRECTION('ref_axis',(-1.,0.,0.));
#223=DIRECTION('',(0.,0.,-1.));
#224=DIRECTION('center_axis',(0.,0.,1.));
#225=DIRECTION('ref_axis',(1.,0.,0.));
#226=DIRECTION('center_axis',(0.,0.,1.));
#227=DIRECTION('ref_axis',(1.,0.,0.));
#228=DIRECTION('center_axis',(1.22464679914735E-16,-1.,0.));
#229=DIRECTION('ref_axis',(-1.,-1.22464679914735E-16,0.));
#230=DIRECTION('center_axis',(0.,0.,1.));
#231=DIRECTION('ref_axis',(1.,0.,0.));
#232=DIRECTION('center_axis',(0.,0.,1.));
#233=DIRECTION('ref_axis',(1.,0.,0.));
#234=DIRECTION('center_axis',(0.,0.,1.));
#235=DIRECTION('ref_axis',(1.,0.,0.));
#236=DIRECTION('center_axis',(0.,0.,1.));
#237=DIRECTION('ref_axis',(1.,0.,0.));
#238=DIRECTION('center_axis',(0.,0.,1.));
#239=DIRECTION('ref_axis',(1.,0.,0.));
#240=DIRECTION('center_axis',(0.,0.,1.));
#241=DIRECTION('ref_axis',(1.,0.,0.));
#242=DIRECTION('center_axis',(1.22464679914735E-16,-1.,0.));
#243=DIRECTION('ref_axis',(-1.,-1.22464679914735E-16,0.));
#244=DIRECTION('center_axis',(0.,0.,1.));
#245=DIRECTION('ref_axis',(1.,0.,0.));
#246=DIRECTION('center_axis',(0.,0.,1.));
#247=DIRECTION('ref_axis',(1.,0.,0.));
#248=DIRECTION('center_axis',(0.,0.,1.));
#249=DIRECTION('ref_axis',(-1.,0.,0.));
#250=DIRECTION('',(-0.0871557427476481,-1.06735001383217E-17,-0.996194698091746));
#251=DIRECTION('center_axis',(0.,0.,1.));
#252=DIRECTION('ref_axis',(1.,0.,0.));
#253=DIRECTION('center_axis',(0.,0.,-1.));
#254=DIRECTION('ref_axis',(-1.,0.,0.));
#255=DIRECTION('',(0.996194698091745,1.21998664834562E-16,-0.0871557427476669));
#256=DIRECTION('center_axis',(0.,0.,1.));
#257=DIRECTION('ref_axis',(1.,0.,0.));
#258=DIRECTION('center_axis',(0.,0.,1.));
#259=DIRECTION('ref_axis',(-1.,0.,0.));
#260=DIRECTION('',(-0.0871557427476584,-1.0673500138323E-17,-0.996194698091745));
#261=DIRECTION('center_axis',(0.,0.,1.));
#262=DIRECTION('ref_axis',(1.,0.,0.));
#263=DIRECTION('center_axis',(0.,0.,1.));
#264=DIRECTION('ref_axis',(1.,0.,0.));
#265=DIRECTION('center_axis',(0.,0.,1.));
#266=DIRECTION('ref_axis',(1.,0.,0.));
#267=DIRECTION('center_axis',(0.,0.,1.));
#268=DIRECTION('ref_axis',(-1.,0.,0.));
#269=DIRECTION('',(0.,0.,-1.));
#270=DIRECTION('center_axis',(0.,0.,1.));
#271=DIRECTION('ref_axis',(-1.,0.,0.));
#272=DIRECTION('',(0.,0.,-1.));
#273=DIRECTION('',(0.,0.,1.));
#274=DIRECTION('',(1.,0.,0.));
#275=CARTESIAN_POINT('',(0.,0.,0.));
#276=CARTESIAN_POINT('',(0.,0.,0.));
#277=CARTESIAN_POINT('Origin',(349.297524807583,0.,41.9765217651932));
#278=CARTESIAN_POINT('',(409.297524807583,7.34788079488412E-15,41.9765217651932));
#279=CARTESIAN_POINT('Origin',(349.297524807583,0.,41.9765217651932));
#280=CARTESIAN_POINT('Origin',(289.297524807583,0.,39.9765217651932));
#281=CARTESIAN_POINT('',(409.297524807583,7.34788079488412E-15,39.9765217651932));
#282=CARTESIAN_POINT('Origin',(349.297524807583,0.,39.9765217651932));
#283=CARTESIAN_POINT('Origin',(349.297524807583,0.,40.9765217651932));
#284=CARTESIAN_POINT('',(409.297524807583,7.34788079488412E-15,40.9765217651932));
#285=CARTESIAN_POINT('Origin',(349.297524807583,0.,-72.4759724021011));
#286=CARTESIAN_POINT('',(298.497524807583,0.,-72.4759724021007));
#287=CARTESIAN_POINT('',(400.097524807583,6.22120573966856E-15,-72.4759724021007));
#288=CARTESIAN_POINT('Origin',(349.297524807583,0.,-72.4759724021007));
#289=CARTESIAN_POINT('',(298.540905249337,0.,-73.469547869424));
#290=CARTESIAN_POINT('Origin',(309.897524807573,-4.82510838864182E-15,-72.4759724021011));
#291=CARTESIAN_POINT('',(400.054144365829,6.21589316775458E-15,-73.469547869424));
#292=CARTESIAN_POINT('Origin',(349.297524807583,0.,-73.469547869424));
#293=CARTESIAN_POINT('Origin',(349.297524807583,0.,-73.469547869424));
#294=CARTESIAN_POINT('Origin',(349.297524807583,0.,-72.4759724021007));
#295=CARTESIAN_POINT('Origin',(349.297524807583,0.,-72.4759724021018));
#296=CARTESIAN_POINT('',(299.697524807583,0.,-72.4759724021013));
#297=CARTESIAN_POINT('',(398.897524807583,6.07424812377087E-15,-72.4759724021013));
#298=CARTESIAN_POINT('Origin',(349.297524807583,0.,-72.4759724021013));
#299=CARTESIAN_POINT('Origin',(349.297524807583,0.,-72.4759724021013));
#300=CARTESIAN_POINT('',(299.736338887047,0.,-73.3649609781273));
#301=CARTESIAN_POINT('Origin',(309.897524807566,-4.8251083886427E-15,-72.4759724021018));
#302=CARTESIAN_POINT('',(398.858710728119,6.0694947699531E-15,-73.3649609781273));
#303=CARTESIAN_POINT('Origin',(349.297524807583,0.,-73.3649609781273));
#304=CARTESIAN_POINT('Origin',(349.297524807583,0.,-73.3649609781273));
#305=CARTESIAN_POINT('Origin',(349.297524807583,0.,-76.6419261608185));
#306=CARTESIAN_POINT('',(398.285316119609,5.99927418275719E-15,-79.9188913435096));
#307=CARTESIAN_POINT('',(398.572013423864,6.03438447635515E-15,-76.6419261608185));
#308=CARTESIAN_POINT('Origin',(349.297524807583,0.,-79.9188913435096));
#309=CARTESIAN_POINT('Origin',(349.297524807583,0.,-79.9711847891582));
#310=CARTESIAN_POINT('',(399.480749757319,6.14567258055865E-15,-80.0234782348068));
#311=CARTESIAN_POINT('',(398.883032938464,6.07247338165792E-15,-79.9711847891582));
#312=CARTESIAN_POINT('Origin',(349.297524807583,0.,-80.0234782348068));
#313=CARTESIAN_POINT('Origin',(349.297524807583,0.,-76.7465130521154));
#314=CARTESIAN_POINT('',(399.767447061574,6.18078287415661E-15,-76.7465130521154));
#315=CARTESIAN_POINT('Origin',(299.697524807583,0.,39.9765217651932));
#316=CARTESIAN_POINT('',(400.097524807583,6.22120573966856E-15,39.9765217651932));
#317=CARTESIAN_POINT('Origin',(349.297524807583,0.,39.9765217651932));
#318=CARTESIAN_POINT('',(398.897524807583,6.07424812377087E-15,39.9765217651932));
#319=CARTESIAN_POINT('Origin',(349.297524807583,0.,39.9765217651932));
#320=CARTESIAN_POINT('Origin',(349.297524807583,0.,6.25027468154595));
#321=CARTESIAN_POINT('',(398.897524807583,6.07424812377087E-15,6.25027468154595));
#322=CARTESIAN_POINT('Origin',(349.297524807583,0.,6.25027468154625));
#323=CARTESIAN_POINT('',(400.097524807583,6.22120573966856E-15,6.25027468154625));
#324=CARTESIAN_POINT('',(0.,0.,0.));
#325=UNCERTAINTY_MEASURE_WITH_UNIT(LENGTH_MEASURE(0.001),#331,
'DISTANCE_ACCURACY_VALUE',
'Maximum model space distance between geometric entities at asserted c
onnectivities');
#326=UNCERTAINTY_MEASURE_WITH_UNIT(LENGTH_MEASURE(0.001),#331,
'DISTANCE_ACCURACY_VALUE',
'Maximum model space distance between geometric entities at asserted c
onnectivities');
#327=UNCERTAINTY_MEASURE_WITH_UNIT(LENGTH_MEASURE(0.001),#331,
'DISTANCE_ACCURACY_VALUE',
'Maximum model space distance between geometric entities at asserted c
onnectivities');
#328=(
GEOMETRIC_REPRESENTATION_CONTEXT(3)
GLOBAL_UNCERTAINTY_ASSIGNED_CONTEXT((#325))
GLOBAL_UNIT_ASSIGNED_CONTEXT((#331,#332,#333))
REPRESENTATION_CONTEXT('','3D')
);
#329=(
GEOMETRIC_REPRESENTATION_CONTEXT(3)
GLOBAL_UNCERTAINTY_ASSIGNED_CONTEXT((#326))
GLOBAL_UNIT_ASSIGNED_CONTEXT((#331,#332,#333))
REPRESENTATION_CONTEXT('','3D')
);
#330=(
GEOMETRIC_REPRESENTATION_CONTEXT(3)
GLOBAL_UNCERTAINTY_ASSIGNED_CONTEXT((#327))
GLOBAL_UNIT_ASSIGNED_CONTEXT((#331,#332,#333))
REPRESENTATION_CONTEXT('','3D')
);
#331=(
LENGTH_UNIT()
NAMED_UNIT(*)
SI_UNIT(.CENTI.,.METRE.)
);
#332=(
NAMED_UNIT(*)
PLANE_ANGLE_UNIT()
SI_UNIT($,.RADIAN.)
);
#333=(
NAMED_UNIT(*)
SI_UNIT($,.STERADIAN.)
SOLID_ANGLE_UNIT()
);
#334=SHAPE_DEFINITION_REPRESENTATION(#336,#339);
#335=SHAPE_DEFINITION_REPRESENTATION(#337,#340);
#336=PRODUCT_DEFINITION_SHAPE('',$,#342);
#337=PRODUCT_DEFINITION_SHAPE('',$,#343);
#338=PRODUCT_DEFINITION_SHAPE($,$,#18);
#339=SHAPE_REPRESENTATION('',(#179,#208),#328);
#340=SHAPE_REPRESENTATION('',(#180),#329);
#341=PRODUCT_DEFINITION_CONTEXT('part definition',#349,'design');
#342=PRODUCT_DEFINITION('Product','Product',#344,#341);
#343=PRODUCT_DEFINITION('*S2','*S2',#345,#341);
#344=PRODUCT_DEFINITION_FORMATION('',$,#351);
#345=PRODUCT_DEFINITION_FORMATION('',$,#352);
#346=PRODUCT_RELATED_PRODUCT_CATEGORY('Product','Product',(#351));
#347=PRODUCT_RELATED_PRODUCT_CATEGORY('*S2','*S2',(#352));
#348=APPLICATION_PROTOCOL_DEFINITION('international standard',
'automotive_design',2009,#349);
#349=APPLICATION_CONTEXT(
'Core Data for Automotive Mechanical Design Process');
#350=PRODUCT_CONTEXT('part definition',#349,'mechanical');
#351=PRODUCT('Product','Product',$,(#350));
#352=PRODUCT('*S2','*S2',$,(#350));
#353=PRESENTATION_STYLE_ASSIGNMENT((#355));
#354=PRESENTATION_STYLE_ASSIGNMENT((#356));
#355=SURFACE_STYLE_USAGE(.BOTH.,#357);
#356=SURFACE_STYLE_USAGE(.BOTH.,#358);
#357=SURFACE_SIDE_STYLE('',(#359));
#358=SURFACE_SIDE_STYLE('',(#360));
#359=SURFACE_STYLE_FILL_AREA(#361);
#360=SURFACE_STYLE_FILL_AREA(#362);
#361=FILL_AREA_STYLE('',(#363));
#362=FILL_AREA_STYLE('',(#364));
#363=FILL_AREA_STYLE_COLOUR('',#365);
#364=FILL_AREA_STYLE_COLOUR('',#366);
#365=COLOUR_RGB('',0.8,0.8,0.8);
#366=COLOUR_RGB('',0.870588235294118,0.870588235294118,0.870588235294118);
ENDSEC;
END-ISO-10303-21;
