ISO-10303-21;
HEADER;
/* Generated by software containing ST-Developer
 * from STEP Tools, Inc. (www.steptools.com) 
 */

FILE_DESCRIPTION(
/* description */ (''),
/* implementation_level */ '2;1');

FILE_NAME(
/* name */ '08001.080X_3D.stp',
/* time_stamp */ '2024-12-11T14:17:46+01:00',
/* author */ ('CAD'),
/* organization */ (''),
/* preprocessor_version */ 'ST-DEVELOPER v20',
/* originating_system */ 'AutoCAD Mechanical',
/* authorisation */ '');

FILE_SCHEMA (('AUTOMOTIVE_DESIGN { 1 0 10303 214 3 1 1 }'));
ENDSEC;

DATA;
#10=MECHANICAL_DESIGN_GEOMETRIC_PRESENTATION_REPRESENTATION('',(#23,#24),
#238);
#11=PRESENTATION_LAYER_ASSIGNMENT('10','BLECH',(#25));
#12=PRESENTATION_LAYER_ASSIGNMENT('7','ROHR',(#26));
#13=SHAPE_REPRESENTATION_RELATIONSHIP('SRR','None',#247,#14);
#14=ADVANCED_BREP_SHAPE_REPRESENTATION('',(#25,#26),#236);
#15=ITEM_DEFINED_TRANSFORMATION($,$,#134,#152);
#16=(
REPRESENTATION_RELATIONSHIP($,$,#248,#247)
REPRESENTATION_RELATIONSHIP_WITH_TRANSFORMATION(#15)
SHAPE_REPRESENTATION_RELATIONSHIP()
);
#17=CONTEXT_DEPENDENT_SHAPE_REPRESENTATION(#16,#246);
#18=NEXT_ASSEMBLY_USAGE_OCCURRENCE('10CD','10CD','10CD',#250,#251,
'10CD');
#19=CONICAL_SURFACE('',#145,43.1219216841401,0.0872664625997143);
#20=CONICAL_SURFACE('',#147,43.5415601871353,1.48352986419517);
#21=CONICAL_SURFACE('',#149,44.3196385029951,0.0872664625997218);
#22=FACE_BOUND('',#55,.T.);
#23=STYLED_ITEM('',(#261),#25);
#24=STYLED_ITEM('',(#262),#26);
#25=MANIFOLD_SOLID_BREP('295B',#131);
#26=MANIFOLD_SOLID_BREP('2C56',#132);
#27=LINE('',#208,#33);
#28=LINE('',#216,#34);
#29=LINE('',#220,#35);
#30=LINE('',#224,#36);
#31=LINE('',#229,#37);
#32=LINE('',#231,#38);
#33=VECTOR('',#167,55.);
#34=VECTOR('',#176,43.3);
#35=VECTOR('',#181,43.1219216841401);
#36=VECTOR('',#186,43.5415601871353);
#37=VECTOR('',#193,44.3196385029951);
#38=VECTOR('',#196,44.5);
#39=CYLINDRICAL_SURFACE('',#139,55.);
#40=CYLINDRICAL_SURFACE('',#143,43.3);
#41=CYLINDRICAL_SURFACE('',#151,44.5);
#42=FACE_OUTER_BOUND('',#51,.T.);
#43=FACE_OUTER_BOUND('',#52,.T.);
#44=FACE_OUTER_BOUND('',#53,.T.);
#45=FACE_OUTER_BOUND('',#54,.T.);
#46=FACE_OUTER_BOUND('',#56,.T.);
#47=FACE_OUTER_BOUND('',#57,.T.);
#48=FACE_OUTER_BOUND('',#58,.T.);
#49=FACE_OUTER_BOUND('',#59,.T.);
#50=FACE_OUTER_BOUND('',#60,.T.);
#51=EDGE_LOOP('',(#91));
#52=EDGE_LOOP('',(#92));
#53=EDGE_LOOP('',(#93,#94,#95,#96));
#54=EDGE_LOOP('',(#97));
#55=EDGE_LOOP('',(#98));
#56=EDGE_LOOP('',(#99,#100,#101,#102));
#57=EDGE_LOOP('',(#103,#104,#105,#106));
#58=EDGE_LOOP('',(#107,#108,#109,#110));
#59=EDGE_LOOP('',(#111,#112,#113,#114));
#60=EDGE_LOOP('',(#115,#116,#117,#118));
#61=CIRCLE('',#136,55.);
#62=CIRCLE('',#138,55.);
#63=CIRCLE('',#141,44.5);
#64=CIRCLE('',#142,43.3);
#65=CIRCLE('',#144,43.3);
#66=CIRCLE('',#146,42.9438433682803);
#67=CIRCLE('',#148,44.1392770059903);
#68=CIRCLE('',#150,44.5);
#69=VERTEX_POINT('',#202);
#70=VERTEX_POINT('',#205);
#71=VERTEX_POINT('',#210);
#72=VERTEX_POINT('',#212);
#73=VERTEX_POINT('',#215);
#74=VERTEX_POINT('',#219);
#75=VERTEX_POINT('',#223);
#76=VERTEX_POINT('',#227);
#77=EDGE_CURVE('',#69,#69,#61,.T.);
#78=EDGE_CURVE('',#70,#70,#62,.T.);
#79=EDGE_CURVE('',#69,#70,#27,.T.);
#80=EDGE_CURVE('',#71,#71,#63,.T.);
#81=EDGE_CURVE('',#72,#72,#64,.T.);
#82=EDGE_CURVE('',#72,#73,#28,.T.);
#83=EDGE_CURVE('',#73,#73,#65,.T.);
#84=EDGE_CURVE('',#73,#74,#29,.T.);
#85=EDGE_CURVE('',#74,#74,#66,.T.);
#86=EDGE_CURVE('',#74,#75,#30,.T.);
#87=EDGE_CURVE('',#75,#75,#67,.T.);
#88=EDGE_CURVE('',#76,#76,#68,.T.);
#89=EDGE_CURVE('',#76,#75,#31,.T.);
#90=EDGE_CURVE('',#71,#76,#32,.T.);
#91=ORIENTED_EDGE('',*,*,#77,.T.);
#92=ORIENTED_EDGE('',*,*,#78,.F.);
#93=ORIENTED_EDGE('',*,*,#77,.F.);
#94=ORIENTED_EDGE('',*,*,#79,.T.);
#95=ORIENTED_EDGE('',*,*,#78,.T.);
#96=ORIENTED_EDGE('',*,*,#79,.F.);
#97=ORIENTED_EDGE('',*,*,#80,.T.);
#98=ORIENTED_EDGE('',*,*,#81,.F.);
#99=ORIENTED_EDGE('',*,*,#81,.T.);
#100=ORIENTED_EDGE('',*,*,#82,.T.);
#101=ORIENTED_EDGE('',*,*,#83,.F.);
#102=ORIENTED_EDGE('',*,*,#82,.F.);
#103=ORIENTED_EDGE('',*,*,#83,.T.);
#104=ORIENTED_EDGE('',*,*,#84,.T.);
#105=ORIENTED_EDGE('',*,*,#85,.F.);
#106=ORIENTED_EDGE('',*,*,#84,.F.);
#107=ORIENTED_EDGE('',*,*,#85,.T.);
#108=ORIENTED_EDGE('',*,*,#86,.T.);
#109=ORIENTED_EDGE('',*,*,#87,.F.);
#110=ORIENTED_EDGE('',*,*,#86,.F.);
#111=ORIENTED_EDGE('',*,*,#88,.F.);
#112=ORIENTED_EDGE('',*,*,#89,.T.);
#113=ORIENTED_EDGE('',*,*,#87,.T.);
#114=ORIENTED_EDGE('',*,*,#89,.F.);
#115=ORIENTED_EDGE('',*,*,#80,.F.);
#116=ORIENTED_EDGE('',*,*,#90,.T.);
#117=ORIENTED_EDGE('',*,*,#88,.T.);
#118=ORIENTED_EDGE('',*,*,#90,.F.);
#119=PLANE('',#135);
#120=PLANE('',#137);
#121=PLANE('',#140);
#122=ADVANCED_FACE('',(#42),#119,.T.);
#123=ADVANCED_FACE('',(#43),#120,.T.);
#124=ADVANCED_FACE('',(#44),#39,.T.);
#125=ADVANCED_FACE('',(#45,#22),#121,.T.);
#126=ADVANCED_FACE('',(#46),#40,.F.);
#127=ADVANCED_FACE('',(#47),#19,.F.);
#128=ADVANCED_FACE('',(#48),#20,.F.);
#129=ADVANCED_FACE('',(#49),#21,.T.);
#130=ADVANCED_FACE('',(#50),#41,.T.);
#131=CLOSED_SHELL('',(#122,#123,#124));
#132=CLOSED_SHELL('',(#125,#126,#127,#128,#129,#130));
#133=AXIS2_PLACEMENT_3D('',#199,#153,#154);
#134=AXIS2_PLACEMENT_3D('',#200,#155,#156);
#135=AXIS2_PLACEMENT_3D('',#201,#157,#158);
#136=AXIS2_PLACEMENT_3D('',#203,#159,#160);
#137=AXIS2_PLACEMENT_3D('',#204,#161,#162);
#138=AXIS2_PLACEMENT_3D('',#206,#163,#164);
#139=AXIS2_PLACEMENT_3D('',#207,#165,#166);
#140=AXIS2_PLACEMENT_3D('',#209,#168,#169);
#141=AXIS2_PLACEMENT_3D('',#211,#170,#171);
#142=AXIS2_PLACEMENT_3D('',#213,#172,#173);
#143=AXIS2_PLACEMENT_3D('',#214,#174,#175);
#144=AXIS2_PLACEMENT_3D('',#217,#177,#178);
#145=AXIS2_PLACEMENT_3D('',#218,#179,#180);
#146=AXIS2_PLACEMENT_3D('',#221,#182,#183);
#147=AXIS2_PLACEMENT_3D('',#222,#184,#185);
#148=AXIS2_PLACEMENT_3D('',#225,#187,#188);
#149=AXIS2_PLACEMENT_3D('',#226,#189,#190);
#150=AXIS2_PLACEMENT_3D('',#228,#191,#192);
#151=AXIS2_PLACEMENT_3D('',#230,#194,#195);
#152=AXIS2_PLACEMENT_3D('',#232,#197,#198);
#153=DIRECTION('axis',(0.,0.,1.));
#154=DIRECTION('refdir',(1.,0.,0.));
#155=DIRECTION('axis',(0.,0.,1.));
#156=DIRECTION('refdir',(1.,0.,0.));
#157=DIRECTION('center_axis',(0.,0.,1.));
#158=DIRECTION('ref_axis',(1.,0.,0.));
#159=DIRECTION('center_axis',(0.,0.,1.));
#160=DIRECTION('ref_axis',(1.,0.,0.));
#161=DIRECTION('center_axis',(0.,0.,-1.));
#162=DIRECTION('ref_axis',(-1.,0.,0.));
#163=DIRECTION('center_axis',(0.,0.,1.));
#164=DIRECTION('ref_axis',(1.,0.,0.));
#165=DIRECTION('center_axis',(0.,0.,1.));
#166=DIRECTION('ref_axis',(-1.,0.,0.));
#167=DIRECTION('',(0.,0.,-1.));
#168=DIRECTION('center_axis',(0.,0.,1.));
#169=DIRECTION('ref_axis',(1.,0.,0.));
#170=DIRECTION('center_axis',(0.,0.,1.));
#171=DIRECTION('ref_axis',(1.,0.,0.));
#172=DIRECTION('center_axis',(0.,0.,1.));
#173=DIRECTION('ref_axis',(1.,0.,0.));
#174=DIRECTION('center_axis',(0.,0.,1.));
#175=DIRECTION('ref_axis',(-1.,0.,0.));
#176=DIRECTION('',(0.,0.,-1.));
#177=DIRECTION('center_axis',(0.,0.,1.));
#178=DIRECTION('ref_axis',(1.,0.,0.));
#179=DIRECTION('center_axis',(0.,0.,1.));
#180=DIRECTION('ref_axis',(-1.,0.,0.));
#181=DIRECTION('',(-0.087155742747656,-1.06735001383227E-17,-0.996194698091746));
#182=DIRECTION('center_axis',(0.,0.,1.));
#183=DIRECTION('ref_axis',(1.,0.,0.));
#184=DIRECTION('center_axis',(0.,0.,-1.));
#185=DIRECTION('ref_axis',(-1.,0.,0.));
#186=DIRECTION('',(0.996194698091744,1.21998664834562E-16,-0.0871557427476727));
#187=DIRECTION('center_axis',(0.,0.,1.));
#188=DIRECTION('ref_axis',(1.,0.,0.));
#189=DIRECTION('center_axis',(0.,0.,1.));
#190=DIRECTION('ref_axis',(-1.,0.,0.));
#191=DIRECTION('center_axis',(0.,0.,1.));
#192=DIRECTION('ref_axis',(1.,0.,0.));
#193=DIRECTION('',(-0.0871557427476635,-1.06735001383236E-17,-0.996194698091745));
#194=DIRECTION('center_axis',(0.,0.,1.));
#195=DIRECTION('ref_axis',(-1.,0.,0.));
#196=DIRECTION('',(0.,0.,-1.));
#197=DIRECTION('',(0.,0.,1.));
#198=DIRECTION('',(1.,0.,0.));
#199=CARTESIAN_POINT('',(0.,0.,0.));
#200=CARTESIAN_POINT('',(0.,0.,0.));
#201=CARTESIAN_POINT('Origin',(349.297524807583,0.,41.9765217651932));
#202=CARTESIAN_POINT('',(404.297524807583,6.73555739531044E-15,41.9765217651932));
#203=CARTESIAN_POINT('Origin',(349.297524807583,0.,41.9765217651932));
#204=CARTESIAN_POINT('Origin',(294.297524807583,0.,40.4765217651932));
#205=CARTESIAN_POINT('',(404.297524807583,6.73555739531044E-15,40.4765217651932));
#206=CARTESIAN_POINT('Origin',(349.297524807583,0.,40.4765217651932));
#207=CARTESIAN_POINT('Origin',(349.297524807583,0.,41.2265217651932));
#208=CARTESIAN_POINT('',(404.297524807583,6.73555739531044E-15,41.2265217651932));
#209=CARTESIAN_POINT('Origin',(305.997524807583,0.,40.4765217651932));
#210=CARTESIAN_POINT('',(393.797524807583,5.44967825620572E-15,40.4765217651932));
#211=CARTESIAN_POINT('Origin',(349.297524807583,0.,40.4765217651932));
#212=CARTESIAN_POINT('',(392.597524807583,5.30272064030804E-15,40.4765217651932));
#213=CARTESIAN_POINT('Origin',(349.297524807583,0.,40.4765217651932));
#214=CARTESIAN_POINT('Origin',(349.297524807583,0.,-14.9357403248923));
#215=CARTESIAN_POINT('',(392.597524807583,5.30272064030804E-15,-70.3480024149777));
#216=CARTESIAN_POINT('',(392.597524807583,5.30272064030804E-15,-14.9357403248923));
#217=CARTESIAN_POINT('Origin',(349.297524807583,0.,-70.3480024149777));
#218=CARTESIAN_POINT('Origin',(349.297524807583,0.,-72.3834468792436));
#219=CARTESIAN_POINT('',(392.241368175863,5.25910403240497E-15,-74.4188913435096));
#220=CARTESIAN_POINT('',(392.419446491723,5.28091233635651E-15,-72.3834468792436));
#221=CARTESIAN_POINT('Origin',(349.297524807583,0.,-74.4188913435096));
#222=CARTESIAN_POINT('Origin',(349.297524807583,0.,-74.4711847891582));
#223=CARTESIAN_POINT('',(393.436801813573,5.40550243020644E-15,-74.5234782348068));
#224=CARTESIAN_POINT('',(392.839084994718,5.33230323130571E-15,-74.4711847891582));
#225=CARTESIAN_POINT('Origin',(349.297524807583,0.,-74.5234782348068));
#226=CARTESIAN_POINT('Origin',(349.297524807583,0.,-72.4619368906373));
#227=CARTESIAN_POINT('',(393.797524807583,5.44967825620572E-15,-70.4003955464678));
#228=CARTESIAN_POINT('Origin',(349.297524807583,0.,-70.4003955464678));
#229=CARTESIAN_POINT('',(393.617163310578,5.42759034320608E-15,-72.4619368906373));
#230=CARTESIAN_POINT('Origin',(349.297524807583,0.,-14.9619368906373));
#231=CARTESIAN_POINT('',(393.797524807583,5.44967825620572E-15,-14.9619368906373));
#232=CARTESIAN_POINT('',(0.,0.,0.));
#233=UNCERTAINTY_MEASURE_WITH_UNIT(LENGTH_MEASURE(0.001),#239,
'DISTANCE_ACCURACY_VALUE',
'Maximum model space distance between geometric entities at asserted c
onnectivities');
#234=UNCERTAINTY_MEASURE_WITH_UNIT(LENGTH_MEASURE(0.001),#239,
'DISTANCE_ACCURACY_VALUE',
'Maximum model space distance between geometric entities at asserted c
onnectivities');
#235=UNCERTAINTY_MEASURE_WITH_UNIT(LENGTH_MEASURE(0.001),#239,
'DISTANCE_ACCURACY_VALUE',
'Maximum model space distance between geometric entities at asserted c
onnectivities');
#236=(
GEOMETRIC_REPRESENTATION_CONTEXT(3)
GLOBAL_UNCERTAINTY_ASSIGNED_CONTEXT((#233))
GLOBAL_UNIT_ASSIGNED_CONTEXT((#239,#240,#241))
REPRESENTATION_CONTEXT('','3D')
);
#237=(
GEOMETRIC_REPRESENTATION_CONTEXT(3)
GLOBAL_UNCERTAINTY_ASSIGNED_CONTEXT((#234))
GLOBAL_UNIT_ASSIGNED_CONTEXT((#239,#240,#241))
REPRESENTATION_CONTEXT('','3D')
);
#238=(
GEOMETRIC_REPRESENTATION_CONTEXT(3)
GLOBAL_UNCERTAINTY_ASSIGNED_CONTEXT((#235))
GLOBAL_UNIT_ASSIGNED_CONTEXT((#239,#240,#241))
REPRESENTATION_CONTEXT('','3D')
);
#239=(
LENGTH_UNIT()
NAMED_UNIT(*)
SI_UNIT(.CENTI.,.METRE.)
);
#240=(
NAMED_UNIT(*)
PLANE_ANGLE_UNIT()
SI_UNIT($,.RADIAN.)
);
#241=(
NAMED_UNIT(*)
SI_UNIT($,.STERADIAN.)
SOLID_ANGLE_UNIT()
);
#242=SHAPE_DEFINITION_REPRESENTATION(#244,#247);
#243=SHAPE_DEFINITION_REPRESENTATION(#245,#248);
#244=PRODUCT_DEFINITION_SHAPE('',$,#250);
#245=PRODUCT_DEFINITION_SHAPE('',$,#251);
#246=PRODUCT_DEFINITION_SHAPE($,$,#18);
#247=SHAPE_REPRESENTATION('',(#133,#152),#236);
#248=SHAPE_REPRESENTATION('',(#134),#237);
#249=PRODUCT_DEFINITION_CONTEXT('part definition',#257,'design');
#250=PRODUCT_DEFINITION('Product','Product',#252,#249);
#251=PRODUCT_DEFINITION('*S2','*S2',#253,#249);
#252=PRODUCT_DEFINITION_FORMATION('',$,#259);
#253=PRODUCT_DEFINITION_FORMATION('',$,#260);
#254=PRODUCT_RELATED_PRODUCT_CATEGORY('Product','Product',(#259));
#255=PRODUCT_RELATED_PRODUCT_CATEGORY('*S2','*S2',(#260));
#256=APPLICATION_PROTOCOL_DEFINITION('international standard',
'automotive_design',2009,#257);
#257=APPLICATION_CONTEXT(
'Core Data for Automotive Mechanical Design Process');
#258=PRODUCT_CONTEXT('part definition',#257,'mechanical');
#259=PRODUCT('Product','Product',$,(#258));
#260=PRODUCT('*S2','*S2',$,(#258));
#261=PRESENTATION_STYLE_ASSIGNMENT((#263));
#262=PRESENTATION_STYLE_ASSIGNMENT((#264));
#263=SURFACE_STYLE_USAGE(.BOTH.,#265);
#264=SURFACE_STYLE_USAGE(.BOTH.,#266);
#265=SURFACE_SIDE_STYLE('',(#267));
#266=SURFACE_SIDE_STYLE('',(#268));
#267=SURFACE_STYLE_FILL_AREA(#269);
#268=SURFACE_STYLE_FILL_AREA(#270);
#269=FILL_AREA_STYLE('',(#271));
#270=FILL_AREA_STYLE('',(#272));
#271=FILL_AREA_STYLE_COLOUR('',#273);
#272=FILL_AREA_STYLE_COLOUR('',#274);
#273=COLOUR_RGB('',0.8,0.8,0.8);
#274=COLOUR_RGB('',0.870588235294118,0.870588235294118,0.870588235294118);
ENDSEC;
END-ISO-10303-21;
