ISO-10303-21;
HEADER;
/* Generated by software containing ST-Developer
 * from STEP Tools, Inc. (www.steptools.com) 
 */

FILE_DESCRIPTION(
/* description */ (''),
/* implementation_level */ '2;1');

FILE_NAME(
/* name */ '08001.050X_3D.stp',
/* time_stamp */ '2024-12-11T14:17:43+01:00',
/* author */ ('CAD'),
/* organization */ (''),
/* preprocessor_version */ 'ST-DEVELOPER v20',
/* originating_system */ 'AutoCAD Mechanical',
/* authorisation */ '');

FILE_SCHEMA (('AUTOMOTIVE_DESIGN { 1 0 10303 214 3 1 1 }'));
ENDSEC;

DATA;
#10=MECHANICAL_DESIGN_GEOMETRIC_PRESENTATION_REPRESENTATION('',(#18),#89);
#11=PRESENTATION_LAYER_ASSIGNMENT('7','ROHR',(#19));
#12=SHAPE_REPRESENTATION_RELATIONSHIP('SRR','None',#98,#13);
#13=ADVANCED_BREP_SHAPE_REPRESENTATION('',(#19),#87);
#14=ITEM_DEFINED_TRANSFORMATION($,$,#49,#55);
#15=(
REPRESENTATION_RELATIONSHIP($,$,#99,#98)
REPRESENTATION_RELATIONSHIP_WITH_TRANSFORMATION(#14)
SHAPE_REPRESENTATION_RELATIONSHIP()
);
#16=CONTEXT_DEPENDENT_SHAPE_REPRESENTATION(#15,#97);
#17=NEXT_ASSEMBLY_USAGE_OCCURRENCE('10CD','10CD','10CD',#101,#102,
'10CD');
#18=STYLED_ITEM('',(#112),#19);
#19=MANIFOLD_SOLID_BREP('22AD',#47);
#20=LINE('',#82,#21);
#21=VECTOR('',#70,34.);
#22=CYLINDRICAL_SURFACE('',#54,34.);
#23=FACE_OUTER_BOUND('',#26,.T.);
#24=FACE_OUTER_BOUND('',#27,.T.);
#25=FACE_OUTER_BOUND('',#28,.T.);
#26=EDGE_LOOP('',(#36));
#27=EDGE_LOOP('',(#37));
#28=EDGE_LOOP('',(#38,#39,#40,#41));
#29=CIRCLE('',#51,34.);
#30=CIRCLE('',#53,34.);
#31=VERTEX_POINT('',#76);
#32=VERTEX_POINT('',#79);
#33=EDGE_CURVE('',#31,#31,#29,.T.);
#34=EDGE_CURVE('',#32,#32,#30,.T.);
#35=EDGE_CURVE('',#31,#32,#20,.T.);
#36=ORIENTED_EDGE('',*,*,#33,.T.);
#37=ORIENTED_EDGE('',*,*,#34,.F.);
#38=ORIENTED_EDGE('',*,*,#33,.F.);
#39=ORIENTED_EDGE('',*,*,#35,.T.);
#40=ORIENTED_EDGE('',*,*,#34,.T.);
#41=ORIENTED_EDGE('',*,*,#35,.F.);
#42=PLANE('',#50);
#43=PLANE('',#52);
#44=ADVANCED_FACE('',(#23),#42,.T.);
#45=ADVANCED_FACE('',(#24),#43,.T.);
#46=ADVANCED_FACE('',(#25),#22,.T.);
#47=CLOSED_SHELL('',(#44,#45,#46));
#48=AXIS2_PLACEMENT_3D('',#73,#56,#57);
#49=AXIS2_PLACEMENT_3D('',#74,#58,#59);
#50=AXIS2_PLACEMENT_3D('',#75,#60,#61);
#51=AXIS2_PLACEMENT_3D('',#77,#62,#63);
#52=AXIS2_PLACEMENT_3D('',#78,#64,#65);
#53=AXIS2_PLACEMENT_3D('',#80,#66,#67);
#54=AXIS2_PLACEMENT_3D('',#81,#68,#69);
#55=AXIS2_PLACEMENT_3D('',#83,#71,#72);
#56=DIRECTION('axis',(0.,0.,1.));
#57=DIRECTION('refdir',(1.,0.,0.));
#58=DIRECTION('axis',(0.,0.,1.));
#59=DIRECTION('refdir',(1.,0.,0.));
#60=DIRECTION('center_axis',(0.,0.,1.));
#61=DIRECTION('ref_axis',(1.,0.,0.));
#62=DIRECTION('center_axis',(0.,0.,1.));
#63=DIRECTION('ref_axis',(1.,0.,0.));
#64=DIRECTION('center_axis',(0.,0.,-1.));
#65=DIRECTION('ref_axis',(-1.,0.,0.));
#66=DIRECTION('center_axis',(0.,0.,1.));
#67=DIRECTION('ref_axis',(1.,0.,0.));
#68=DIRECTION('center_axis',(0.,0.,1.));
#69=DIRECTION('ref_axis',(-1.,0.,0.));
#70=DIRECTION('',(0.,0.,-1.));
#71=DIRECTION('',(0.,0.,1.));
#72=DIRECTION('',(1.,0.,0.));
#73=CARTESIAN_POINT('',(0.,0.,0.));
#74=CARTESIAN_POINT('',(0.,0.,0.));
#75=CARTESIAN_POINT('Origin',(322.797524807583,0.,41.9765217651932));
#76=CARTESIAN_POINT('',(383.297524807583,4.163799117101E-15,41.9765217651932));
#77=CARTESIAN_POINT('Origin',(349.297524807583,0.,41.9765217651932));
#78=CARTESIAN_POINT('Origin',(315.297524807583,0.,40.4765217651932));
#79=CARTESIAN_POINT('',(383.297524807583,4.163799117101E-15,40.4765217651932));
#80=CARTESIAN_POINT('Origin',(349.297524807583,0.,40.4765217651932));
#81=CARTESIAN_POINT('Origin',(349.297524807583,0.,41.2265217651932));
#82=CARTESIAN_POINT('',(383.297524807583,4.163799117101E-15,41.2265217651932));
#83=CARTESIAN_POINT('',(0.,0.,0.));
#84=UNCERTAINTY_MEASURE_WITH_UNIT(LENGTH_MEASURE(0.001),#90,
'DISTANCE_ACCURACY_VALUE',
'Maximum model space distance between geometric entities at asserted c
onnectivities');
#85=UNCERTAINTY_MEASURE_WITH_UNIT(LENGTH_MEASURE(0.001),#90,
'DISTANCE_ACCURACY_VALUE',
'Maximum model space distance between geometric entities at asserted c
onnectivities');
#86=UNCERTAINTY_MEASURE_WITH_UNIT(LENGTH_MEASURE(0.001),#90,
'DISTANCE_ACCURACY_VALUE',
'Maximum model space distance between geometric entities at asserted c
onnectivities');
#87=(
GEOMETRIC_REPRESENTATION_CONTEXT(3)
GLOBAL_UNCERTAINTY_ASSIGNED_CONTEXT((#84))
GLOBAL_UNIT_ASSIGNED_CONTEXT((#90,#91,#92))
REPRESENTATION_CONTEXT('','3D')
);
#88=(
GEOMETRIC_REPRESENTATION_CONTEXT(3)
GLOBAL_UNCERTAINTY_ASSIGNED_CONTEXT((#85))
GLOBAL_UNIT_ASSIGNED_CONTEXT((#90,#91,#92))
REPRESENTATION_CONTEXT('','3D')
);
#89=(
GEOMETRIC_REPRESENTATION_CONTEXT(3)
GLOBAL_UNCERTAINTY_ASSIGNED_CONTEXT((#86))
GLOBAL_UNIT_ASSIGNED_CONTEXT((#90,#91,#92))
REPRESENTATION_CONTEXT('','3D')
);
#90=(
LENGTH_UNIT()
NAMED_UNIT(*)
SI_UNIT(.CENTI.,.METRE.)
);
#91=(
NAMED_UNIT(*)
PLANE_ANGLE_UNIT()
SI_UNIT($,.RADIAN.)
);
#92=(
NAMED_UNIT(*)
SI_UNIT($,.STERADIAN.)
SOLID_ANGLE_UNIT()
);
#93=SHAPE_DEFINITION_REPRESENTATION(#95,#98);
#94=SHAPE_DEFINITION_REPRESENTATION(#96,#99);
#95=PRODUCT_DEFINITION_SHAPE('',$,#101);
#96=PRODUCT_DEFINITION_SHAPE('',$,#102);
#97=PRODUCT_DEFINITION_SHAPE($,$,#17);
#98=SHAPE_REPRESENTATION('',(#48,#55),#87);
#99=SHAPE_REPRESENTATION('',(#49),#88);
#100=PRODUCT_DEFINITION_CONTEXT('part definition',#108,'design');
#101=PRODUCT_DEFINITION('Product','Product',#103,#100);
#102=PRODUCT_DEFINITION('*S2','*S2',#104,#100);
#103=PRODUCT_DEFINITION_FORMATION('',$,#110);
#104=PRODUCT_DEFINITION_FORMATION('',$,#111);
#105=PRODUCT_RELATED_PRODUCT_CATEGORY('Product','Product',(#110));
#106=PRODUCT_RELATED_PRODUCT_CATEGORY('*S2','*S2',(#111));
#107=APPLICATION_PROTOCOL_DEFINITION('international standard',
'automotive_design',2009,#108);
#108=APPLICATION_CONTEXT(
'Core Data for Automotive Mechanical Design Process');
#109=PRODUCT_CONTEXT('part definition',#108,'mechanical');
#110=PRODUCT('Product','Product',$,(#109));
#111=PRODUCT('*S2','*S2',$,(#109));
#112=PRESENTATION_STYLE_ASSIGNMENT((#113));
#113=SURFACE_STYLE_USAGE(.BOTH.,#114);
#114=SURFACE_SIDE_STYLE('',(#115));
#115=SURFACE_STYLE_FILL_AREA(#116);
#116=FILL_AREA_STYLE('',(#117));
#117=FILL_AREA_STYLE_COLOUR('',#118);
#118=COLOUR_RGB('',0.870588235294118,0.870588235294118,0.870588235294118);
ENDSEC;
END-ISO-10303-21;
