ISO-10303-21;
HEADER;
/* Generated by software containing ST-Developer
 * from STEP Tools, Inc. (www.steptools.com) 
 */

FILE_DESCRIPTION(
/* description */ (''),
/* implementation_level */ '2;1');

FILE_NAME(
/* name */ '08001.040X_3D.stp',
/* time_stamp */ '2024-12-11T14:17:41+01:00',
/* author */ ('CAD'),
/* organization */ (''),
/* preprocessor_version */ 'ST-DEVELOPER v20',
/* originating_system */ 'AutoCAD Mechanical',
/* authorisation */ '');

FILE_SCHEMA (('AUTOMOTIVE_DESIGN { 1 0 10303 214 3 1 1 }'));
ENDSEC;

DATA;
#10=MECHANICAL_DESIGN_GEOMETRIC_PRESENTATION_REPRESENTATION('',(#29,#30,
#31),#301);
#11=PRESENTATION_LAYER_ASSIGNMENT('6','BLECH',(#32));
#12=PRESENTATION_LAYER_ASSIGNMENT('4','ROHR',(#28,#33));
#13=GEOMETRICALLY_BOUNDED_SURFACE_SHAPE_REPRESENTATION('',(#14),#299);
#14=GEOMETRIC_SET('GEOSET',(#28));
#15=SHAPE_REPRESENTATION_RELATIONSHIP('SRR','None',#310,#17);
#16=SHAPE_REPRESENTATION_RELATIONSHIP('SRR','None',#310,#13);
#17=ADVANCED_BREP_SHAPE_REPRESENTATION('',(#32,#33),#299);
#18=ITEM_DEFINED_TRANSFORMATION($,$,#167,#191);
#19=(
REPRESENTATION_RELATIONSHIP($,$,#311,#310)
REPRESENTATION_RELATIONSHIP_WITH_TRANSFORMATION(#18)
SHAPE_REPRESENTATION_RELATIONSHIP()
);
#20=CONTEXT_DEPENDENT_SHAPE_REPRESENTATION(#19,#309);
#21=NEXT_ASSEMBLY_USAGE_OCCURRENCE('10CD','10CD','10CD',#313,#314,
'10CD');
#22=FACE_BOUND('',#71,.T.);
#23=TOROIDAL_SURFACE('',#178,14.4999999999931,5.50000000000682);
#24=TOROIDAL_SURFACE('',#181,14.4999999999873,6.50000000001268);
#25=CONICAL_SURFACE('',#173,20.3006599562943,1.48352986419519);
#26=CONICAL_SURFACE('',#176,19.8908167233764,0.0872664625997086);
#27=CONICAL_SURFACE('',#185,20.8870114214682,0.0872664625997116);
#28=TRIMMED_CURVE('1B25',#35,(#262,PARAMETER_VALUE(0.)),(#263,
PARAMETER_VALUE(1.)),.T.,.PARAMETER.);
#29=STYLED_ITEM('',(#324),#32);
#30=STYLED_ITEM('',(#325),#28);
#31=STYLED_ITEM('',(#325),#33);
#32=MANIFOLD_SOLID_BREP('1B21',#164);
#33=MANIFOLD_SOLID_BREP('22ED',#165);
#34=LINE('',#260,#41);
#35=LINE('',#261,#42);
#36=LINE('',#268,#43);
#37=LINE('',#272,#44);
#38=LINE('',#285,#45);
#39=LINE('',#292,#46);
#40=LINE('',#294,#47);
#41=VECTOR('',#206,26.5);
#42=VECTOR('',#207,21.);
#43=VECTOR('',#212,20.3006599562943);
#44=VECTOR('',#217,19.8908167233764);
#45=VECTOR('',#236,20.8870114214682);
#46=VECTOR('',#245,20.9999999999999);
#47=VECTOR('',#248,19.9999999999999);
#48=CYLINDRICAL_SURFACE('',#172,26.5);
#49=CYLINDRICAL_SURFACE('',#189,20.9999999999999);
#50=CYLINDRICAL_SURFACE('',#190,19.9999999999999);
#51=FACE_OUTER_BOUND('',#62,.T.);
#52=FACE_OUTER_BOUND('',#63,.T.);
#53=FACE_OUTER_BOUND('',#64,.T.);
#54=FACE_OUTER_BOUND('',#65,.T.);
#55=FACE_OUTER_BOUND('',#66,.T.);
#56=FACE_OUTER_BOUND('',#67,.T.);
#57=FACE_OUTER_BOUND('',#68,.T.);
#58=FACE_OUTER_BOUND('',#69,.T.);
#59=FACE_OUTER_BOUND('',#70,.T.);
#60=FACE_OUTER_BOUND('',#72,.T.);
#61=FACE_OUTER_BOUND('',#73,.T.);
#62=EDGE_LOOP('',(#114));
#63=EDGE_LOOP('',(#115));
#64=EDGE_LOOP('',(#116,#117,#118,#119));
#65=EDGE_LOOP('',(#120,#121,#122,#123));
#66=EDGE_LOOP('',(#124,#125,#126,#127));
#67=EDGE_LOOP('',(#128,#129,#130,#131));
#68=EDGE_LOOP('',(#132,#133,#134,#135));
#69=EDGE_LOOP('',(#136,#137,#138,#139));
#70=EDGE_LOOP('',(#140));
#71=EDGE_LOOP('',(#141));
#72=EDGE_LOOP('',(#142,#143,#144,#145));
#73=EDGE_LOOP('',(#146,#147,#148,#149));
#74=CIRCLE('',#169,26.5);
#75=CIRCLE('',#171,26.5);
#76=CIRCLE('',#174,20.7987573053401);
#77=CIRCLE('',#175,19.8025626072484);
#78=CIRCLE('',#177,19.9790708395045);
#79=CIRCLE('',#179,5.50000000000682);
#80=CIRCLE('',#180,19.9999999999999);
#81=CIRCLE('',#182,20.9752655375963);
#82=CIRCLE('',#183,6.50000000001268);
#83=CIRCLE('',#184,20.9999999999999);
#84=CIRCLE('',#187,21.);
#85=CIRCLE('',#188,20.);
#86=VERTEX_POINT('',#254);
#87=VERTEX_POINT('',#257);
#88=VERTEX_POINT('',#265);
#89=VERTEX_POINT('',#267);
#90=VERTEX_POINT('',#271);
#91=VERTEX_POINT('',#275);
#92=VERTEX_POINT('',#279);
#93=VERTEX_POINT('',#281);
#94=VERTEX_POINT('',#287);
#95=VERTEX_POINT('',#289);
#96=EDGE_CURVE('',#86,#86,#74,.T.);
#97=EDGE_CURVE('',#87,#87,#75,.T.);
#98=EDGE_CURVE('',#86,#87,#34,.T.);
#99=EDGE_CURVE('',#88,#88,#76,.T.);
#100=EDGE_CURVE('',#88,#89,#36,.T.);
#101=EDGE_CURVE('',#89,#89,#77,.T.);
#102=EDGE_CURVE('',#89,#90,#37,.T.);
#103=EDGE_CURVE('',#90,#90,#78,.T.);
#104=EDGE_CURVE('',#90,#91,#79,.T.);
#105=EDGE_CURVE('',#91,#91,#80,.T.);
#106=EDGE_CURVE('',#92,#92,#81,.T.);
#107=EDGE_CURVE('',#92,#93,#82,.T.);
#108=EDGE_CURVE('',#93,#93,#83,.T.);
#109=EDGE_CURVE('',#88,#92,#38,.T.);
#110=EDGE_CURVE('',#94,#94,#84,.T.);
#111=EDGE_CURVE('',#95,#95,#85,.T.);
#112=EDGE_CURVE('',#93,#94,#39,.T.);
#113=EDGE_CURVE('',#91,#95,#40,.T.);
#114=ORIENTED_EDGE('',*,*,#96,.T.);
#115=ORIENTED_EDGE('',*,*,#97,.F.);
#116=ORIENTED_EDGE('',*,*,#96,.F.);
#117=ORIENTED_EDGE('',*,*,#98,.T.);
#118=ORIENTED_EDGE('',*,*,#97,.T.);
#119=ORIENTED_EDGE('',*,*,#98,.F.);
#120=ORIENTED_EDGE('',*,*,#99,.T.);
#121=ORIENTED_EDGE('',*,*,#100,.T.);
#122=ORIENTED_EDGE('',*,*,#101,.F.);
#123=ORIENTED_EDGE('',*,*,#100,.F.);
#124=ORIENTED_EDGE('',*,*,#101,.T.);
#125=ORIENTED_EDGE('',*,*,#102,.T.);
#126=ORIENTED_EDGE('',*,*,#103,.F.);
#127=ORIENTED_EDGE('',*,*,#102,.F.);
#128=ORIENTED_EDGE('',*,*,#103,.T.);
#129=ORIENTED_EDGE('',*,*,#104,.T.);
#130=ORIENTED_EDGE('',*,*,#105,.F.);
#131=ORIENTED_EDGE('',*,*,#104,.F.);
#132=ORIENTED_EDGE('',*,*,#106,.F.);
#133=ORIENTED_EDGE('',*,*,#107,.T.);
#134=ORIENTED_EDGE('',*,*,#108,.T.);
#135=ORIENTED_EDGE('',*,*,#107,.F.);
#136=ORIENTED_EDGE('',*,*,#99,.F.);
#137=ORIENTED_EDGE('',*,*,#109,.T.);
#138=ORIENTED_EDGE('',*,*,#106,.T.);
#139=ORIENTED_EDGE('',*,*,#109,.F.);
#140=ORIENTED_EDGE('',*,*,#110,.F.);
#141=ORIENTED_EDGE('',*,*,#111,.T.);
#142=ORIENTED_EDGE('',*,*,#108,.F.);
#143=ORIENTED_EDGE('',*,*,#112,.T.);
#144=ORIENTED_EDGE('',*,*,#110,.T.);
#145=ORIENTED_EDGE('',*,*,#112,.F.);
#146=ORIENTED_EDGE('',*,*,#105,.T.);
#147=ORIENTED_EDGE('',*,*,#113,.T.);
#148=ORIENTED_EDGE('',*,*,#111,.F.);
#149=ORIENTED_EDGE('',*,*,#113,.F.);
#150=PLANE('',#168);
#151=PLANE('',#170);
#152=PLANE('',#186);
#153=ADVANCED_FACE('',(#51),#150,.T.);
#154=ADVANCED_FACE('',(#52),#151,.T.);
#155=ADVANCED_FACE('',(#53),#48,.T.);
#156=ADVANCED_FACE('',(#54),#25,.F.);
#157=ADVANCED_FACE('',(#55),#26,.F.);
#158=ADVANCED_FACE('',(#56),#23,.F.);
#159=ADVANCED_FACE('',(#57),#24,.T.);
#160=ADVANCED_FACE('',(#58),#27,.T.);
#161=ADVANCED_FACE('',(#59,#22),#152,.T.);
#162=ADVANCED_FACE('',(#60),#49,.T.);
#163=ADVANCED_FACE('',(#61),#50,.F.);
#164=CLOSED_SHELL('',(#153,#154,#155));
#165=CLOSED_SHELL('',(#156,#157,#158,#159,#160,#161,#162,#163));
#166=AXIS2_PLACEMENT_3D('',#251,#192,#193);
#167=AXIS2_PLACEMENT_3D('',#252,#194,#195);
#168=AXIS2_PLACEMENT_3D('',#253,#196,#197);
#169=AXIS2_PLACEMENT_3D('',#255,#198,#199);
#170=AXIS2_PLACEMENT_3D('',#256,#200,#201);
#171=AXIS2_PLACEMENT_3D('',#258,#202,#203);
#172=AXIS2_PLACEMENT_3D('',#259,#204,#205);
#173=AXIS2_PLACEMENT_3D('',#264,#208,#209);
#174=AXIS2_PLACEMENT_3D('',#266,#210,#211);
#175=AXIS2_PLACEMENT_3D('',#269,#213,#214);
#176=AXIS2_PLACEMENT_3D('',#270,#215,#216);
#177=AXIS2_PLACEMENT_3D('',#273,#218,#219);
#178=AXIS2_PLACEMENT_3D('',#274,#220,#221);
#179=AXIS2_PLACEMENT_3D('',#276,#222,#223);
#180=AXIS2_PLACEMENT_3D('',#277,#224,#225);
#181=AXIS2_PLACEMENT_3D('',#278,#226,#227);
#182=AXIS2_PLACEMENT_3D('',#280,#228,#229);
#183=AXIS2_PLACEMENT_3D('',#282,#230,#231);
#184=AXIS2_PLACEMENT_3D('',#283,#232,#233);
#185=AXIS2_PLACEMENT_3D('',#284,#234,#235);
#186=AXIS2_PLACEMENT_3D('',#286,#237,#238);
#187=AXIS2_PLACEMENT_3D('',#288,#239,#240);
#188=AXIS2_PLACEMENT_3D('',#290,#241,#242);
#189=AXIS2_PLACEMENT_3D('',#291,#243,#244);
#190=AXIS2_PLACEMENT_3D('',#293,#246,#247);
#191=AXIS2_PLACEMENT_3D('',#295,#249,#250);
#192=DIRECTION('axis',(0.,0.,1.));
#193=DIRECTION('refdir',(1.,0.,0.));
#194=DIRECTION('axis',(0.,0.,1.));
#195=DIRECTION('refdir',(1.,0.,0.));
#196=DIRECTION('center_axis',(0.,0.,1.));
#197=DIRECTION('ref_axis',(1.,0.,0.));
#198=DIRECTION('center_axis',(0.,0.,1.));
#199=DIRECTION('ref_axis',(1.,0.,0.));
#200=DIRECTION('center_axis',(0.,0.,-1.));
#201=DIRECTION('ref_axis',(-1.,0.,0.));
#202=DIRECTION('center_axis',(0.,0.,1.));
#203=DIRECTION('ref_axis',(1.,0.,0.));
#204=DIRECTION('center_axis',(0.,0.,1.));
#205=DIRECTION('ref_axis',(-1.,0.,0.));
#206=DIRECTION('',(0.,0.,-1.));
#207=DIRECTION('',(-1.,0.,0.));
#208=DIRECTION('center_axis',(0.,0.,-1.));
#209=DIRECTION('ref_axis',(-1.,0.,0.));
#210=DIRECTION('center_axis',(0.,0.,-1.));
#211=DIRECTION('ref_axis',(1.,0.,0.));
#212=DIRECTION('',(-0.996194698091746,1.21998664834562E-16,0.0871557427476528));
#213=DIRECTION('center_axis',(0.,0.,-1.));
#214=DIRECTION('ref_axis',(1.,0.,0.));
#215=DIRECTION('center_axis',(0.,0.,1.));
#216=DIRECTION('ref_axis',(-1.,0.,0.));
#217=DIRECTION('',(0.0871557427476503,-1.0673500138322E-17,0.996194698091746));
#218=DIRECTION('center_axis',(0.,0.,-1.));
#219=DIRECTION('ref_axis',(1.,0.,0.));
#220=DIRECTION('center_axis',(0.,0.,-1.));
#221=DIRECTION('ref_axis',(-1.,0.,0.));
#222=DIRECTION('center_axis',(-1.22464679914735E-16,-1.,0.));
#223=DIRECTION('ref_axis',(1.,-1.22464679914735E-16,0.));
#224=DIRECTION('center_axis',(0.,0.,-1.));
#225=DIRECTION('ref_axis',(1.,0.,0.));
#226=DIRECTION('center_axis',(0.,0.,-1.));
#227=DIRECTION('ref_axis',(-1.,0.,0.));
#228=DIRECTION('center_axis',(0.,0.,-1.));
#229=DIRECTION('ref_axis',(1.,0.,0.));
#230=DIRECTION('center_axis',(-1.22464679914735E-16,-1.,0.));
#231=DIRECTION('ref_axis',(1.,-1.22464679914735E-16,0.));
#232=DIRECTION('center_axis',(0.,0.,-1.));
#233=DIRECTION('ref_axis',(1.,0.,0.));
#234=DIRECTION('center_axis',(0.,0.,1.));
#235=DIRECTION('ref_axis',(-1.,0.,0.));
#236=DIRECTION('',(0.0871557427476533,-1.06735001383224E-17,0.996194698091746));
#237=DIRECTION('center_axis',(0.,0.,1.));
#238=DIRECTION('ref_axis',(1.,0.,0.));
#239=DIRECTION('center_axis',(0.,0.,-1.));
#240=DIRECTION('ref_axis',(1.,0.,0.));
#241=DIRECTION('center_axis',(0.,0.,-1.));
#242=DIRECTION('ref_axis',(1.,0.,0.));
#243=DIRECTION('center_axis',(0.,0.,-1.));
#244=DIRECTION('ref_axis',(-1.,0.,0.));
#245=DIRECTION('',(0.,0.,1.));
#246=DIRECTION('center_axis',(0.,0.,-1.));
#247=DIRECTION('ref_axis',(-1.,0.,0.));
#248=DIRECTION('',(0.,0.,1.));
#249=DIRECTION('',(0.,0.,1.));
#250=DIRECTION('',(1.,0.,0.));
#251=CARTESIAN_POINT('',(0.,0.,0.));
#252=CARTESIAN_POINT('',(0.,0.,0.));
#253=CARTESIAN_POINT('Origin',(349.297524807583,0.,41.9765217651932));
#254=CARTESIAN_POINT('',(375.797524807583,3.24531401774049E-15,41.9765217651932));
#255=CARTESIAN_POINT('Origin',(349.297524807583,0.,41.9765217651932));
#256=CARTESIAN_POINT('Origin',(322.797524807583,0.,40.4765217651932));
#257=CARTESIAN_POINT('',(375.797524807583,3.24531401774049E-15,40.4765217651932));
#258=CARTESIAN_POINT('Origin',(349.297524807583,0.,40.4765217651932));
#259=CARTESIAN_POINT('Origin',(349.297524807583,0.,41.2265217651932));
#260=CARTESIAN_POINT('',(375.797524807583,3.24531401774049E-15,41.2265217651932));
#261=CARTESIAN_POINT('',(349.297524807583,0.,40.4765217651932));
#262=CARTESIAN_POINT('',(349.297524807583,0.,40.4765217651932));
#263=CARTESIAN_POINT('',(328.297524807583,0.,40.4765217651932));
#264=CARTESIAN_POINT('Origin',(349.297524807583,0.,-29.479900363433));
#265=CARTESIAN_POINT('',(370.096282112923,-2.54711315602274E-15,-29.5234782348068));
#266=CARTESIAN_POINT('Origin',(349.297524807583,0.,-29.5234782348068));
#267=CARTESIAN_POINT('',(369.100087414831,-2.42511449118818E-15,-29.4363224920592));
#268=CARTESIAN_POINT('',(369.598184763877,-2.48611382360546E-15,-29.479900363433));
#269=CARTESIAN_POINT('Origin',(349.297524807583,0.,-29.4363224920592));
#270=CARTESIAN_POINT('Origin',(349.297524807583,0.,-28.4275733287813));
#271=CARTESIAN_POINT('',(369.276595647087,-2.44673051535374E-15,-27.4188241655034));
#272=CARTESIAN_POINT('',(369.188341530959,-2.43592250327096E-15,-28.4275733287813));
#273=CARTESIAN_POINT('Origin',(349.297524807583,0.,-27.4188241655034));
#274=CARTESIAN_POINT('Origin',(349.297524807583,0.,-26.9394675803906));
#275=CARTESIAN_POINT('',(369.297524807583,-2.4492935982947E-15,-26.9394675803913));
#276=CARTESIAN_POINT('Origin',(363.797524807576,-1.77573785876282E-15,-26.9394675803906));
#277=CARTESIAN_POINT('Origin',(349.297524807583,0.,-26.9394675803913));
#278=CARTESIAN_POINT('Origin',(349.297524807583,0.,-26.9394675803906));
#279=CARTESIAN_POINT('',(370.272790345179,-2.56872918018831E-15,-27.5059799082511));
#280=CARTESIAN_POINT('Origin',(349.297524807583,0.,-27.5059799082511));
#281=CARTESIAN_POINT('',(370.297524807583,-2.57175827820943E-15,-26.9394675803913));
#282=CARTESIAN_POINT('Origin',(363.79752480757,-1.7757378587621E-15,-26.9394675803906));
#283=CARTESIAN_POINT('Origin',(349.297524807583,0.,-26.9394675803913));
#284=CARTESIAN_POINT('Origin',(349.297524807583,0.,-28.5147290715289));
#285=CARTESIAN_POINT('',(370.184536229051,-2.55792116810553E-15,-28.5147290715289));
#286=CARTESIAN_POINT('Origin',(328.297524807583,0.,40.4765217651932));
#287=CARTESIAN_POINT('',(370.297524807583,-2.57175827820943E-15,40.4765217651932));
#288=CARTESIAN_POINT('Origin',(349.297524807583,0.,40.4765217651932));
#289=CARTESIAN_POINT('',(369.297524807583,-2.4492935982947E-15,40.4765217651932));
#290=CARTESIAN_POINT('Origin',(349.297524807583,0.,40.4765217651932));
#291=CARTESIAN_POINT('Origin',(349.297524807583,0.,24.2685270924009));
#292=CARTESIAN_POINT('',(370.297524807583,-2.57175827820943E-15,24.2685270924009));
#293=CARTESIAN_POINT('Origin',(349.297524807583,0.,24.2685270924009));
#294=CARTESIAN_POINT('',(369.297524807583,-2.4492935982947E-15,24.2685270924009));
#295=CARTESIAN_POINT('',(0.,0.,0.));
#296=UNCERTAINTY_MEASURE_WITH_UNIT(LENGTH_MEASURE(0.001),#302,
'DISTANCE_ACCURACY_VALUE',
'Maximum model space distance between geometric entities at asserted c
onnectivities');
#297=UNCERTAINTY_MEASURE_WITH_UNIT(LENGTH_MEASURE(0.001),#302,
'DISTANCE_ACCURACY_VALUE',
'Maximum model space distance between geometric entities at asserted c
onnectivities');
#298=UNCERTAINTY_MEASURE_WITH_UNIT(LENGTH_MEASURE(0.001),#302,
'DISTANCE_ACCURACY_VALUE',
'Maximum model space distance between geometric entities at asserted c
onnectivities');
#299=(
GEOMETRIC_REPRESENTATION_CONTEXT(3)
GLOBAL_UNCERTAINTY_ASSIGNED_CONTEXT((#296))
GLOBAL_UNIT_ASSIGNED_CONTEXT((#302,#303,#304))
REPRESENTATION_CONTEXT('','3D')
);
#300=(
GEOMETRIC_REPRESENTATION_CONTEXT(3)
GLOBAL_UNCERTAINTY_ASSIGNED_CONTEXT((#297))
GLOBAL_UNIT_ASSIGNED_CONTEXT((#302,#303,#304))
REPRESENTATION_CONTEXT('','3D')
);
#301=(
GEOMETRIC_REPRESENTATION_CONTEXT(3)
GLOBAL_UNCERTAINTY_ASSIGNED_CONTEXT((#298))
GLOBAL_UNIT_ASSIGNED_CONTEXT((#302,#303,#304))
REPRESENTATION_CONTEXT('','3D')
);
#302=(
LENGTH_UNIT()
NAMED_UNIT(*)
SI_UNIT(.CENTI.,.METRE.)
);
#303=(
NAMED_UNIT(*)
PLANE_ANGLE_UNIT()
SI_UNIT($,.RADIAN.)
);
#304=(
NAMED_UNIT(*)
SI_UNIT($,.STERADIAN.)
SOLID_ANGLE_UNIT()
);
#305=SHAPE_DEFINITION_REPRESENTATION(#307,#310);
#306=SHAPE_DEFINITION_REPRESENTATION(#308,#311);
#307=PRODUCT_DEFINITION_SHAPE('',$,#313);
#308=PRODUCT_DEFINITION_SHAPE('',$,#314);
#309=PRODUCT_DEFINITION_SHAPE($,$,#21);
#310=SHAPE_REPRESENTATION('',(#166,#191),#299);
#311=SHAPE_REPRESENTATION('',(#167),#300);
#312=PRODUCT_DEFINITION_CONTEXT('part definition',#320,'design');
#313=PRODUCT_DEFINITION('Product','Product',#315,#312);
#314=PRODUCT_DEFINITION('*S2','*S2',#316,#312);
#315=PRODUCT_DEFINITION_FORMATION('',$,#322);
#316=PRODUCT_DEFINITION_FORMATION('',$,#323);
#317=PRODUCT_RELATED_PRODUCT_CATEGORY('Product','Product',(#322));
#318=PRODUCT_RELATED_PRODUCT_CATEGORY('*S2','*S2',(#323));
#319=APPLICATION_PROTOCOL_DEFINITION('international standard',
'automotive_design',2009,#320);
#320=APPLICATION_CONTEXT(
'Core Data for Automotive Mechanical Design Process');
#321=PRODUCT_CONTEXT('part definition',#320,'mechanical');
#322=PRODUCT('Product','Product',$,(#321));
#323=PRODUCT('*S2','*S2',$,(#321));
#324=PRESENTATION_STYLE_ASSIGNMENT((#326));
#325=PRESENTATION_STYLE_ASSIGNMENT((#327));
#326=SURFACE_STYLE_USAGE(.BOTH.,#328);
#327=SURFACE_STYLE_USAGE(.BOTH.,#329);
#328=SURFACE_SIDE_STYLE('',(#330));
#329=SURFACE_SIDE_STYLE('',(#331));
#330=SURFACE_STYLE_FILL_AREA(#332);
#331=SURFACE_STYLE_FILL_AREA(#333);
#332=FILL_AREA_STYLE('',(#334));
#333=FILL_AREA_STYLE('',(#335));
#334=FILL_AREA_STYLE_COLOUR('',#336);
#335=FILL_AREA_STYLE_COLOUR('',#337);
#336=COLOUR_RGB('',0.8,0.8,0.8);
#337=COLOUR_RGB('',0.870588235294118,0.870588235294118,0.870588235294118);
ENDSEC;
END-ISO-10303-21;
