ISO-10303-21;
HEADER;
/* Generated by software containing ST-Developer
 * from STEP Tools, Inc. (www.steptools.com) 
 */

FILE_DESCRIPTION(
/* description */ (''),
/* implementation_level */ '2;1');

FILE_NAME(
/* name */ '01121.100X_3D.stp',
/* time_stamp */ '2024-12-11T13:22:47+01:00',
/* author */ ('CAD'),
/* organization */ (''),
/* preprocessor_version */ 'ST-DEVELOPER v20',
/* originating_system */ 'AutoCAD Mechanical',
/* authorisation */ '');

FILE_SCHEMA (('AUTOMOTIVE_DESIGN { 1 0 10303 214 3 1 1 }'));
ENDSEC;

DATA;
#10=MECHANICAL_DESIGN_GEOMETRIC_PRESENTATION_REPRESENTATION('',(#18),#467);
#11=PRESENTATION_LAYER_ASSIGNMENT('2','Material (Versinkt)',(#19));
#12=ITEM_DEFINED_TRANSFORMATION($,$,#291,#292);
#13=(
REPRESENTATION_RELATIONSHIP($,$,#477,#476)
REPRESENTATION_RELATIONSHIP_WITH_TRANSFORMATION(#12)
SHAPE_REPRESENTATION_RELATIONSHIP()
);
#14=CONTEXT_DEPENDENT_SHAPE_REPRESENTATION(#13,#475);
#15=NEXT_ASSEMBLY_USAGE_OCCURRENCE('91F','91F','91F',#479,#480,'91F');
#16=SHAPE_REPRESENTATION_RELATIONSHIP('SRR','None',#476,#17);
#17=ADVANCED_BREP_SHAPE_REPRESENTATION('',(#19),#465);
#18=STYLED_ITEM('',(#490),#19);
#19=MANIFOLD_SOLID_BREP('8F3',#249);
#20=FACE_BOUND('',#76,.T.);
#21=PLANE('',#288);
#22=CYLINDRICAL_SURFACE('',#264,47.4999999999998);
#23=CYLINDRICAL_SURFACE('',#272,45.9999999999998);
#24=CYLINDRICAL_SURFACE('',#286,49.4999999999999);
#25=CYLINDRICAL_SURFACE('',#290,50.9999999999999);
#26=LINE('',#404,#35);
#27=LINE('',#414,#36);
#28=LINE('',#418,#37);
#29=LINE('',#421,#38);
#30=LINE('',#425,#39);
#31=LINE('',#429,#40);
#32=LINE('',#441,#41);
#33=LINE('',#453,#42);
#34=LINE('',#459,#43);
#35=VECTOR('',#313,49.2499999999998);
#36=VECTOR('',#326,47.4999999999998);
#37=VECTOR('',#331,47.281278341185);
#38=VECTOR('',#334,46.3154106588015);
#39=VECTOR('',#339,45.7841323176162);
#40=VECTOR('',#344,45.9999999999998);
#41=VECTOR('',#359,47.8342124654507);
#42=VECTOR('',#374,49.4999999999999);
#43=VECTOR('',#383,50.9999999999999);
#44=CONICAL_SURFACE('',#257,49.2499999999998,0.336674819386723);
#45=CONICAL_SURFACE('',#266,47.281278341185,0.087266462599707);
#46=CONICAL_SURFACE('',#268,46.3154106588015,1.48352986419518);
#47=CONICAL_SURFACE('',#270,45.7841323176162,0.0872664625997085);
#48=CONICAL_SURFACE('',#279,47.8342124654507,0.33667481938672);
#49=FACE_OUTER_BOUND('',#63,.T.);
#50=FACE_OUTER_BOUND('',#64,.T.);
#51=FACE_OUTER_BOUND('',#65,.T.);
#52=FACE_OUTER_BOUND('',#66,.T.);
#53=FACE_OUTER_BOUND('',#67,.T.);
#54=FACE_OUTER_BOUND('',#68,.T.);
#55=FACE_OUTER_BOUND('',#69,.T.);
#56=FACE_OUTER_BOUND('',#70,.T.);
#57=FACE_OUTER_BOUND('',#71,.T.);
#58=FACE_OUTER_BOUND('',#72,.T.);
#59=FACE_OUTER_BOUND('',#73,.T.);
#60=FACE_OUTER_BOUND('',#74,.T.);
#61=FACE_OUTER_BOUND('',#75,.T.);
#62=FACE_OUTER_BOUND('',#77,.T.);
#63=EDGE_LOOP('',(#161,#162,#163,#164,#165,#166));
#64=EDGE_LOOP('',(#167,#168,#169,#170,#171,#172));
#65=EDGE_LOOP('',(#173,#174,#175,#176,#177,#178));
#66=EDGE_LOOP('',(#179,#180,#181,#182,#183));
#67=EDGE_LOOP('',(#184,#185,#186,#187));
#68=EDGE_LOOP('',(#188,#189,#190,#191));
#69=EDGE_LOOP('',(#192,#193,#194,#195));
#70=EDGE_LOOP('',(#196,#197,#198,#199,#200));
#71=EDGE_LOOP('',(#201,#202,#203,#204,#205,#206));
#72=EDGE_LOOP('',(#207,#208,#209,#210,#211,#212));
#73=EDGE_LOOP('',(#213,#214,#215,#216,#217,#218));
#74=EDGE_LOOP('',(#219,#220,#221,#222,#223));
#75=EDGE_LOOP('',(#224));
#76=EDGE_LOOP('',(#225));
#77=EDGE_LOOP('',(#226,#227,#228,#229,#230));
#78=CIRCLE('',#252,50.326300276392);
#79=CIRCLE('',#253,11.9999999999996);
#80=CIRCLE('',#254,50.9999999999998);
#81=CIRCLE('',#255,50.9999999999998);
#82=CIRCLE('',#256,50.326300276392);
#83=CIRCLE('',#258,48.1736997236075);
#84=CIRCLE('',#259,48.1736997236075);
#85=CIRCLE('',#261,11.9999999999975);
#86=CIRCLE('',#262,47.4999999999998);
#87=CIRCLE('',#263,47.4999999999998);
#88=CIRCLE('',#265,47.4999999999998);
#89=CIRCLE('',#267,47.0625566823703);
#90=CIRCLE('',#269,45.5682646352327);
#91=CIRCLE('',#271,45.9999999999998);
#92=CIRCLE('',#273,45.9999999999998);
#93=CIRCLE('',#274,45.9999999999998);
#94=CIRCLE('',#276,46.7579121890584);
#95=CIRCLE('',#277,13.4999999999988);
#96=CIRCLE('',#278,46.7579121890584);
#97=CIRCLE('',#280,48.910512741843);
#98=CIRCLE('',#281,48.910512741843);
#99=CIRCLE('',#283,10.5000000000022);
#100=CIRCLE('',#284,49.4999999999998);
#101=CIRCLE('',#285,49.4999999999998);
#102=CIRCLE('',#287,49.4999999999999);
#103=CIRCLE('',#289,50.9999999999999);
#104=VERTEX_POINT('',#390);
#105=VERTEX_POINT('',#391);
#106=VERTEX_POINT('',#393);
#107=VERTEX_POINT('',#395);
#108=VERTEX_POINT('',#400);
#109=VERTEX_POINT('',#401);
#110=VERTEX_POINT('',#406);
#111=VERTEX_POINT('',#408);
#112=VERTEX_POINT('',#412);
#113=VERTEX_POINT('',#416);
#114=VERTEX_POINT('',#420);
#115=VERTEX_POINT('',#424);
#116=VERTEX_POINT('',#428);
#117=VERTEX_POINT('',#430);
#118=VERTEX_POINT('',#434);
#119=VERTEX_POINT('',#435);
#120=VERTEX_POINT('',#440);
#121=VERTEX_POINT('',#442);
#122=VERTEX_POINT('',#446);
#123=VERTEX_POINT('',#448);
#124=VERTEX_POINT('',#452);
#125=VERTEX_POINT('',#456);
#126=EDGE_CURVE('',#104,#105,#78,.T.);
#127=EDGE_CURVE('',#104,#106,#79,.T.);
#128=EDGE_CURVE('',#106,#107,#80,.T.);
#129=EDGE_CURVE('',#107,#106,#81,.T.);
#130=EDGE_CURVE('',#105,#104,#82,.T.);
#131=EDGE_CURVE('',#108,#109,#83,.T.);
#132=EDGE_CURVE('',#109,#108,#84,.T.);
#133=EDGE_CURVE('',#109,#105,#26,.T.);
#134=EDGE_CURVE('',#108,#110,#85,.T.);
#135=EDGE_CURVE('',#111,#110,#86,.T.);
#136=EDGE_CURVE('',#110,#111,#87,.T.);
#137=EDGE_CURVE('',#112,#112,#88,.T.);
#138=EDGE_CURVE('',#112,#111,#27,.T.);
#139=EDGE_CURVE('',#113,#113,#89,.T.);
#140=EDGE_CURVE('',#113,#112,#28,.T.);
#141=EDGE_CURVE('',#113,#114,#29,.T.);
#142=EDGE_CURVE('',#114,#114,#90,.T.);
#143=EDGE_CURVE('',#114,#115,#30,.T.);
#144=EDGE_CURVE('',#115,#115,#91,.T.);
#145=EDGE_CURVE('',#115,#116,#31,.T.);
#146=EDGE_CURVE('',#117,#116,#92,.T.);
#147=EDGE_CURVE('',#116,#117,#93,.T.);
#148=EDGE_CURVE('',#118,#119,#94,.T.);
#149=EDGE_CURVE('',#118,#117,#95,.T.);
#150=EDGE_CURVE('',#119,#118,#96,.T.);
#151=EDGE_CURVE('',#119,#120,#32,.T.);
#152=EDGE_CURVE('',#121,#120,#97,.T.);
#153=EDGE_CURVE('',#120,#121,#98,.T.);
#154=EDGE_CURVE('',#121,#122,#99,.T.);
#155=EDGE_CURVE('',#123,#122,#100,.T.);
#156=EDGE_CURVE('',#122,#123,#101,.T.);
#157=EDGE_CURVE('',#123,#124,#33,.T.);
#158=EDGE_CURVE('',#124,#124,#102,.T.);
#159=EDGE_CURVE('',#125,#125,#103,.T.);
#160=EDGE_CURVE('',#107,#125,#34,.T.);
#161=ORIENTED_EDGE('',*,*,#126,.F.);
#162=ORIENTED_EDGE('',*,*,#127,.T.);
#163=ORIENTED_EDGE('',*,*,#128,.T.);
#164=ORIENTED_EDGE('',*,*,#129,.T.);
#165=ORIENTED_EDGE('',*,*,#127,.F.);
#166=ORIENTED_EDGE('',*,*,#130,.F.);
#167=ORIENTED_EDGE('',*,*,#131,.F.);
#168=ORIENTED_EDGE('',*,*,#132,.F.);
#169=ORIENTED_EDGE('',*,*,#133,.T.);
#170=ORIENTED_EDGE('',*,*,#130,.T.);
#171=ORIENTED_EDGE('',*,*,#126,.T.);
#172=ORIENTED_EDGE('',*,*,#133,.F.);
#173=ORIENTED_EDGE('',*,*,#131,.T.);
#174=ORIENTED_EDGE('',*,*,#132,.T.);
#175=ORIENTED_EDGE('',*,*,#134,.T.);
#176=ORIENTED_EDGE('',*,*,#135,.F.);
#177=ORIENTED_EDGE('',*,*,#136,.F.);
#178=ORIENTED_EDGE('',*,*,#134,.F.);
#179=ORIENTED_EDGE('',*,*,#137,.F.);
#180=ORIENTED_EDGE('',*,*,#138,.T.);
#181=ORIENTED_EDGE('',*,*,#135,.T.);
#182=ORIENTED_EDGE('',*,*,#136,.T.);
#183=ORIENTED_EDGE('',*,*,#138,.F.);
#184=ORIENTED_EDGE('',*,*,#139,.F.);
#185=ORIENTED_EDGE('',*,*,#140,.T.);
#186=ORIENTED_EDGE('',*,*,#137,.T.);
#187=ORIENTED_EDGE('',*,*,#140,.F.);
#188=ORIENTED_EDGE('',*,*,#139,.T.);
#189=ORIENTED_EDGE('',*,*,#141,.T.);
#190=ORIENTED_EDGE('',*,*,#142,.F.);
#191=ORIENTED_EDGE('',*,*,#141,.F.);
#192=ORIENTED_EDGE('',*,*,#142,.T.);
#193=ORIENTED_EDGE('',*,*,#143,.T.);
#194=ORIENTED_EDGE('',*,*,#144,.F.);
#195=ORIENTED_EDGE('',*,*,#143,.F.);
#196=ORIENTED_EDGE('',*,*,#144,.T.);
#197=ORIENTED_EDGE('',*,*,#145,.T.);
#198=ORIENTED_EDGE('',*,*,#146,.F.);
#199=ORIENTED_EDGE('',*,*,#147,.F.);
#200=ORIENTED_EDGE('',*,*,#145,.F.);
#201=ORIENTED_EDGE('',*,*,#148,.F.);
#202=ORIENTED_EDGE('',*,*,#149,.T.);
#203=ORIENTED_EDGE('',*,*,#146,.T.);
#204=ORIENTED_EDGE('',*,*,#147,.T.);
#205=ORIENTED_EDGE('',*,*,#149,.F.);
#206=ORIENTED_EDGE('',*,*,#150,.F.);
#207=ORIENTED_EDGE('',*,*,#148,.T.);
#208=ORIENTED_EDGE('',*,*,#151,.T.);
#209=ORIENTED_EDGE('',*,*,#152,.F.);
#210=ORIENTED_EDGE('',*,*,#153,.F.);
#211=ORIENTED_EDGE('',*,*,#151,.F.);
#212=ORIENTED_EDGE('',*,*,#150,.T.);
#213=ORIENTED_EDGE('',*,*,#152,.T.);
#214=ORIENTED_EDGE('',*,*,#153,.T.);
#215=ORIENTED_EDGE('',*,*,#154,.T.);
#216=ORIENTED_EDGE('',*,*,#155,.F.);
#217=ORIENTED_EDGE('',*,*,#156,.F.);
#218=ORIENTED_EDGE('',*,*,#154,.F.);
#219=ORIENTED_EDGE('',*,*,#156,.T.);
#220=ORIENTED_EDGE('',*,*,#157,.T.);
#221=ORIENTED_EDGE('',*,*,#158,.F.);
#222=ORIENTED_EDGE('',*,*,#157,.F.);
#223=ORIENTED_EDGE('',*,*,#155,.T.);
#224=ORIENTED_EDGE('',*,*,#159,.F.);
#225=ORIENTED_EDGE('',*,*,#158,.T.);
#226=ORIENTED_EDGE('',*,*,#128,.F.);
#227=ORIENTED_EDGE('',*,*,#129,.F.);
#228=ORIENTED_EDGE('',*,*,#160,.T.);
#229=ORIENTED_EDGE('',*,*,#159,.T.);
#230=ORIENTED_EDGE('',*,*,#160,.F.);
#231=TOROIDAL_SURFACE('',#251,39.0000000000002,11.9999999999996);
#232=TOROIDAL_SURFACE('',#260,59.4999999999973,11.9999999999975);
#233=TOROIDAL_SURFACE('',#275,59.4999999999986,13.4999999999988);
#234=TOROIDAL_SURFACE('',#282,38.9999999999976,10.5000000000022);
#235=ADVANCED_FACE('',(#49),#231,.T.);
#236=ADVANCED_FACE('',(#50),#44,.T.);
#237=ADVANCED_FACE('',(#51),#232,.F.);
#238=ADVANCED_FACE('',(#52),#22,.T.);
#239=ADVANCED_FACE('',(#53),#45,.T.);
#240=ADVANCED_FACE('',(#54),#46,.F.);
#241=ADVANCED_FACE('',(#55),#47,.F.);
#242=ADVANCED_FACE('',(#56),#23,.F.);
#243=ADVANCED_FACE('',(#57),#233,.T.);
#244=ADVANCED_FACE('',(#58),#48,.F.);
#245=ADVANCED_FACE('',(#59),#234,.F.);
#246=ADVANCED_FACE('',(#60),#24,.F.);
#247=ADVANCED_FACE('',(#61,#20),#21,.T.);
#248=ADVANCED_FACE('',(#62),#25,.T.);
#249=CLOSED_SHELL('',(#235,#236,#237,#238,#239,#240,#241,#242,#243,#244,
#245,#246,#247,#248));
#250=AXIS2_PLACEMENT_3D('',#388,#293,#294);
#251=AXIS2_PLACEMENT_3D('',#389,#295,#296);
#252=AXIS2_PLACEMENT_3D('',#392,#297,#298);
#253=AXIS2_PLACEMENT_3D('',#394,#299,#300);
#254=AXIS2_PLACEMENT_3D('',#396,#301,#302);
#255=AXIS2_PLACEMENT_3D('',#397,#303,#304);
#256=AXIS2_PLACEMENT_3D('',#398,#305,#306);
#257=AXIS2_PLACEMENT_3D('',#399,#307,#308);
#258=AXIS2_PLACEMENT_3D('',#402,#309,#310);
#259=AXIS2_PLACEMENT_3D('',#403,#311,#312);
#260=AXIS2_PLACEMENT_3D('',#405,#314,#315);
#261=AXIS2_PLACEMENT_3D('',#407,#316,#317);
#262=AXIS2_PLACEMENT_3D('',#409,#318,#319);
#263=AXIS2_PLACEMENT_3D('',#410,#320,#321);
#264=AXIS2_PLACEMENT_3D('',#411,#322,#323);
#265=AXIS2_PLACEMENT_3D('',#413,#324,#325);
#266=AXIS2_PLACEMENT_3D('',#415,#327,#328);
#267=AXIS2_PLACEMENT_3D('',#417,#329,#330);
#268=AXIS2_PLACEMENT_3D('',#419,#332,#333);
#269=AXIS2_PLACEMENT_3D('',#422,#335,#336);
#270=AXIS2_PLACEMENT_3D('',#423,#337,#338);
#271=AXIS2_PLACEMENT_3D('',#426,#340,#341);
#272=AXIS2_PLACEMENT_3D('',#427,#342,#343);
#273=AXIS2_PLACEMENT_3D('',#431,#345,#346);
#274=AXIS2_PLACEMENT_3D('',#432,#347,#348);
#275=AXIS2_PLACEMENT_3D('',#433,#349,#350);
#276=AXIS2_PLACEMENT_3D('',#436,#351,#352);
#277=AXIS2_PLACEMENT_3D('',#437,#353,#354);
#278=AXIS2_PLACEMENT_3D('',#438,#355,#356);
#279=AXIS2_PLACEMENT_3D('',#439,#357,#358);
#280=AXIS2_PLACEMENT_3D('',#443,#360,#361);
#281=AXIS2_PLACEMENT_3D('',#444,#362,#363);
#282=AXIS2_PLACEMENT_3D('',#445,#364,#365);
#283=AXIS2_PLACEMENT_3D('',#447,#366,#367);
#284=AXIS2_PLACEMENT_3D('',#449,#368,#369);
#285=AXIS2_PLACEMENT_3D('',#450,#370,#371);
#286=AXIS2_PLACEMENT_3D('',#451,#372,#373);
#287=AXIS2_PLACEMENT_3D('',#454,#375,#376);
#288=AXIS2_PLACEMENT_3D('',#455,#377,#378);
#289=AXIS2_PLACEMENT_3D('',#457,#379,#380);
#290=AXIS2_PLACEMENT_3D('',#458,#381,#382);
#291=AXIS2_PLACEMENT_3D('',#460,#384,#385);
#292=AXIS2_PLACEMENT_3D('',#461,#386,#387);
#293=DIRECTION('axis',(0.,0.,1.));
#294=DIRECTION('refdir',(1.,0.,0.));
#295=DIRECTION('center_axis',(0.,-6.12323399573677E-17,-1.));
#296=DIRECTION('ref_axis',(0.,1.,0.));
#297=DIRECTION('center_axis',(0.,-6.12323399573677E-17,-1.));
#298=DIRECTION('ref_axis',(1.,0.,0.));
#299=DIRECTION('center_axis',(-1.,0.,0.));
#300=DIRECTION('ref_axis',(0.,-1.,6.12323399573677E-17));
#301=DIRECTION('center_axis',(0.,-6.12323399573677E-17,-1.));
#302=DIRECTION('ref_axis',(1.,0.,0.));
#303=DIRECTION('center_axis',(0.,-6.12323399573677E-17,-1.));
#304=DIRECTION('ref_axis',(1.,0.,0.));
#305=DIRECTION('center_axis',(0.,-6.12323399573677E-17,-1.));
#306=DIRECTION('ref_axis',(1.,0.,0.));
#307=DIRECTION('center_axis',(0.,6.12323399573677E-17,1.));
#308=DIRECTION('ref_axis',(-1.,0.,0.));
#309=DIRECTION('center_axis',(0.,-6.12323399573677E-17,-1.));
#310=DIRECTION('ref_axis',(1.,0.,0.));
#311=DIRECTION('center_axis',(0.,-6.12323399573677E-17,-1.));
#312=DIRECTION('ref_axis',(1.,0.,0.));
#313=DIRECTION('',(0.330350424728102,1.73383967245825E-17,0.943858356366019));
#314=DIRECTION('center_axis',(0.,-6.12323399573677E-17,-1.));
#315=DIRECTION('ref_axis',(0.,1.,0.));
#316=DIRECTION('center_axis',(-1.,0.,0.));
#317=DIRECTION('ref_axis',(0.,-1.,6.12323399573677E-17));
#318=DIRECTION('center_axis',(0.,-6.12323399573677E-17,-1.));
#319=DIRECTION('ref_axis',(1.,0.,0.));
#320=DIRECTION('center_axis',(0.,-6.12323399573677E-17,-1.));
#321=DIRECTION('ref_axis',(1.,0.,0.));
#322=DIRECTION('center_axis',(0.,-6.12323399573677E-17,-1.));
#323=DIRECTION('ref_axis',(-1.,0.,0.));
#324=DIRECTION('center_axis',(0.,-6.12323399573677E-17,-1.));
#325=DIRECTION('ref_axis',(1.,0.,0.));
#326=DIRECTION('',(0.,6.12323399573677E-17,1.));
#327=DIRECTION('center_axis',(0.,6.12323399573677E-17,1.));
#328=DIRECTION('ref_axis',(-1.,0.,0.));
#329=DIRECTION('center_axis',(0.,-6.12323399573677E-17,-1.));
#330=DIRECTION('ref_axis',(1.,0.,0.));
#331=DIRECTION('',(0.0871557427476488,5.03258322789592E-17,0.996194698091746));
#332=DIRECTION('center_axis',(0.,-6.12323399573677E-17,-1.));
#333=DIRECTION('ref_axis',(-1.,0.,0.));
#334=DIRECTION('',(-0.996194698091746,1.27335414903723E-16,0.0871557427476553));
#335=DIRECTION('center_axis',(0.,-6.12323399573677E-17,-1.));
#336=DIRECTION('ref_axis',(1.,0.,0.));
#337=DIRECTION('center_axis',(0.,6.12323399573677E-17,1.));
#338=DIRECTION('ref_axis',(-1.,0.,0.));
#339=DIRECTION('',(0.0871557427476503,5.0325832278959E-17,0.996194698091746));
#340=DIRECTION('center_axis',(0.,-6.12323399573677E-17,-1.));
#341=DIRECTION('ref_axis',(1.,0.,0.));
#342=DIRECTION('center_axis',(0.,-6.12323399573677E-17,-1.));
#343=DIRECTION('ref_axis',(-1.,0.,0.));
#344=DIRECTION('',(0.,6.12323399573677E-17,1.));
#345=DIRECTION('center_axis',(0.,-6.12323399573677E-17,-1.));
#346=DIRECTION('ref_axis',(1.,0.,0.));
#347=DIRECTION('center_axis',(0.,-6.12323399573677E-17,-1.));
#348=DIRECTION('ref_axis',(1.,0.,0.));
#349=DIRECTION('center_axis',(0.,-6.12323399573677E-17,-1.));
#350=DIRECTION('ref_axis',(0.,1.,0.));
#351=DIRECTION('center_axis',(0.,-6.12323399573677E-17,-1.));
#352=DIRECTION('ref_axis',(1.,0.,0.));
#353=DIRECTION('center_axis',(-1.,0.,0.));
#354=DIRECTION('ref_axis',(0.,-1.,6.12323399573677E-17));
#355=DIRECTION('center_axis',(0.,-6.12323399573677E-17,-1.));
#356=DIRECTION('ref_axis',(1.,0.,0.));
#357=DIRECTION('center_axis',(0.,6.12323399573677E-17,1.));
#358=DIRECTION('ref_axis',(-1.,0.,0.));
#359=DIRECTION('',(0.330350424728099,1.73383967245829E-17,0.94385835636602));
#360=DIRECTION('center_axis',(0.,-6.12323399573677E-17,-1.));
#361=DIRECTION('ref_axis',(1.,0.,0.));
#362=DIRECTION('center_axis',(0.,-6.12323399573677E-17,-1.));
#363=DIRECTION('ref_axis',(1.,0.,0.));
#364=DIRECTION('center_axis',(0.,-6.12323399573677E-17,-1.));
#365=DIRECTION('ref_axis',(0.,1.,0.));
#366=DIRECTION('center_axis',(-1.,0.,0.));
#367=DIRECTION('ref_axis',(0.,-1.,6.12323399573677E-17));
#368=DIRECTION('center_axis',(0.,-6.12323399573677E-17,-1.));
#369=DIRECTION('ref_axis',(1.,0.,0.));
#370=DIRECTION('center_axis',(0.,-6.12323399573677E-17,-1.));
#371=DIRECTION('ref_axis',(1.,0.,0.));
#372=DIRECTION('center_axis',(0.,-6.12323399573677E-17,-1.));
#373=DIRECTION('ref_axis',(-1.,0.,0.));
#374=DIRECTION('',(0.,6.12323399573677E-17,1.));
#375=DIRECTION('center_axis',(0.,-6.12323399573677E-17,-1.));
#376=DIRECTION('ref_axis',(1.,0.,0.));
#377=DIRECTION('center_axis',(0.,6.12323399573677E-17,1.));
#378=DIRECTION('ref_axis',(0.,-1.,6.12323399573677E-17));
#379=DIRECTION('center_axis',(0.,-6.12323399573677E-17,-1.));
#380=DIRECTION('ref_axis',(1.,0.,0.));
#381=DIRECTION('center_axis',(0.,-6.12323399573677E-17,-1.));
#382=DIRECTION('ref_axis',(-1.,0.,0.));
#383=DIRECTION('',(0.,6.12323399573677E-17,1.));
#384=DIRECTION('axis',(0.,0.,1.));
#385=DIRECTION('refdir',(1.,0.,0.));
#386=DIRECTION('',(0.,0.,1.));
#387=DIRECTION('',(1.,0.,0.));
#388=CARTESIAN_POINT('',(0.,0.,0.));
#389=CARTESIAN_POINT('Origin',(0.,1.94721389268204E-14,109.078697487144));
#390=CARTESIAN_POINT('',(0.,-50.326300276392,105.114492390407));
#391=CARTESIAN_POINT('',(50.326300276392,1.30662071180351E-14,105.114492390407));
#392=CARTESIAN_POINT('Origin',(0.,1.92294013726763E-14,105.114492390407));
#393=CARTESIAN_POINT('',(0.,-50.9999999999998,109.078697487144));
#394=CARTESIAN_POINT('Origin',(0.,-39.0000000000002,109.078697487144));
#395=CARTESIAN_POINT('',(50.9999999999999,1.32264402511689E-14,109.078697487144));
#396=CARTESIAN_POINT('Origin',(0.,1.94721389268204E-14,109.078697487144));
#397=CARTESIAN_POINT('Origin',(0.,1.94721389268204E-14,109.078697487144));
#398=CARTESIAN_POINT('Origin',(0.,1.92294013726763E-14,105.114492390407));
#399=CARTESIAN_POINT('Origin',(0.,1.90411031314755E-14,102.039348743572));
#400=CARTESIAN_POINT('',(0.,-48.1736997236075,98.9642050967369));
#401=CARTESIAN_POINT('',(48.1736997236075,1.29532281733146E-14,98.9642050967369));
#402=CARTESIAN_POINT('Origin',(0.,1.88528048902748E-14,98.9642050967369));
#403=CARTESIAN_POINT('Origin',(0.,1.88528048902748E-14,98.9642050967369));
#404=CARTESIAN_POINT('',(49.2499999999998,1.30097176456748E-14,102.039348743572));
#405=CARTESIAN_POINT('Origin',(0.,1.86100673361307E-14,95.0000000000003));
#406=CARTESIAN_POINT('',(0.,-47.4999999999998,94.9999999999999));
#407=CARTESIAN_POINT('Origin',(0.,-59.4999999999973,95.0000000000003));
#408=CARTESIAN_POINT('',(47.4999999999998,1.27929950401808E-14,94.9999999999999));
#409=CARTESIAN_POINT('Origin',(0.,1.86100673361307E-14,94.9999999999999));
#410=CARTESIAN_POINT('Origin',(0.,1.86100673361307E-14,94.9999999999999));
#411=CARTESIAN_POINT('Origin',(0.,1.58546120380491E-14,49.9999999999999));
#412=CARTESIAN_POINT('',(47.4999999999998,7.28208444401767E-15,5.));
#413=CARTESIAN_POINT('Origin',(0.,1.30991567399676E-14,5.));
#414=CARTESIAN_POINT('',(47.4999999999998,1.00375397420992E-14,49.9999999999999));
#415=CARTESIAN_POINT('Origin',(0.,1.29460758900742E-14,2.5));
#416=CARTESIAN_POINT('',(47.0625566823703,7.02949410010518E-15,0.));
#417=CARTESIAN_POINT('Origin',(0.,1.27929950401807E-14,0.));
#418=CARTESIAN_POINT('',(47.281278341185,7.15578927206142E-15,2.5));
#419=CARTESIAN_POINT('Origin',(0.,1.27969976027326E-14,0.0653668070607409));
#420=CARTESIAN_POINT('',(45.5682646352327,7.22049722246076E-15,0.130733614121482));
#421=CARTESIAN_POINT('',(46.3154106588015,7.12499566128297E-15,0.0653668070607409));
#422=CARTESIAN_POINT('Origin',(0.,1.28010001652845E-14,0.130733614121482));
#423=CARTESIAN_POINT('Origin',(0.,1.29520835489003E-14,2.59811251424202));
#424=CARTESIAN_POINT('',(45.9999999999998,7.46979165643831E-15,5.0654914143625));
#425=CARTESIAN_POINT('',(45.7841323176162,7.34514443944954E-15,2.59811251424202));
#426=CARTESIAN_POINT('Origin',(0.,1.31031669325161E-14,5.0654914143625));
#427=CARTESIAN_POINT('Origin',(0.,1.58566171343234E-14,50.0327457071812));
#428=CARTESIAN_POINT('',(45.9999999999998,1.29766920600529E-14,94.9999999999999));
#429=CARTESIAN_POINT('',(45.9999999999998,1.02232418582456E-14,50.0327457071812));
#430=CARTESIAN_POINT('',(0.,-45.9999999999998,94.9999999999999));
#431=CARTESIAN_POINT('Origin',(0.,1.86100673361307E-14,94.9999999999999));
#432=CARTESIAN_POINT('Origin',(0.,1.86100673361307E-14,94.9999999999999));
#433=CARTESIAN_POINT('Origin',(0.,1.86100673361307E-14,95.0000000000002));
#434=CARTESIAN_POINT('',(0.,-46.7579121890584,99.459730733829));
#435=CARTESIAN_POINT('',(46.7579121890585,1.31569543348285E-14,99.459730733829));
#436=CARTESIAN_POINT('Origin',(0.,1.88831470845428E-14,99.459730733829));
#437=CARTESIAN_POINT('Origin',(0.,-59.4999999999986,95.0000000000002));
#438=CARTESIAN_POINT('Origin',(0.,1.88831470845428E-14,99.459730733829));
#439=CARTESIAN_POINT('Origin',(0.,1.90714453257436E-14,102.534874380664));
#440=CARTESIAN_POINT('',(48.910512741843,1.32699332795489E-14,105.610018027499));
#441=CARTESIAN_POINT('',(47.8342124654507,1.32134438071887E-14,102.534874380664));
#442=CARTESIAN_POINT('',(0.,-48.910512741843,105.610018027499));
#443=CARTESIAN_POINT('Origin',(0.,1.92597435669443E-14,105.610018027499));
#444=CARTESIAN_POINT('Origin',(0.,1.92597435669443E-14,105.610018027499));
#445=CARTESIAN_POINT('Origin',(0.,1.94721389268205E-14,109.078697487145));
#446=CARTESIAN_POINT('',(0.,-49.4999999999998,109.078697487144));
#447=CARTESIAN_POINT('Origin',(0.,-38.9999999999976,109.078697487145));
#448=CARTESIAN_POINT('',(49.4999999999999,1.3410137271041E-14,109.078697487144));
#449=CARTESIAN_POINT('Origin',(0.,1.94721389268204E-14,109.078697487144));
#450=CARTESIAN_POINT('Origin',(0.,1.94721389268204E-14,109.078697487144));
#451=CARTESIAN_POINT('Origin',(0.,3.43491881208175E-14,352.039348743572));
#452=CARTESIAN_POINT('',(49.4999999999999,4.31642356590351E-14,595.));
#453=CARTESIAN_POINT('',(49.4999999999999,2.82871864650381E-14,352.039348743572));
#454=CARTESIAN_POINT('Origin',(0.,4.92262373148145E-14,595.));
#455=CARTESIAN_POINT('Origin',(-50.9999999999999,4.92262373148145E-14,595.));
#456=CARTESIAN_POINT('',(50.9999999999999,4.2980538639163E-14,595.));
#457=CARTESIAN_POINT('Origin',(0.,4.92262373148145E-14,595.));
#458=CARTESIAN_POINT('Origin',(0.,3.43491881208175E-14,352.039348743572));
#459=CARTESIAN_POINT('',(50.9999999999999,2.8103489445166E-14,352.039348743572));
#460=CARTESIAN_POINT('',(0.,0.,0.));
#461=CARTESIAN_POINT('',(0.,0.,0.));
#462=UNCERTAINTY_MEASURE_WITH_UNIT(LENGTH_MEASURE(0.001),#468,
'DISTANCE_ACCURACY_VALUE',
'Maximum model space distance between geometric entities at asserted c
onnectivities');
#463=UNCERTAINTY_MEASURE_WITH_UNIT(LENGTH_MEASURE(0.001),#468,
'DISTANCE_ACCURACY_VALUE',
'Maximum model space distance between geometric entities at asserted c
onnectivities');
#464=UNCERTAINTY_MEASURE_WITH_UNIT(LENGTH_MEASURE(0.001),#468,
'DISTANCE_ACCURACY_VALUE',
'Maximum model space distance between geometric entities at asserted c
onnectivities');
#465=(
GEOMETRIC_REPRESENTATION_CONTEXT(3)
GLOBAL_UNCERTAINTY_ASSIGNED_CONTEXT((#462))
GLOBAL_UNIT_ASSIGNED_CONTEXT((#468,#469,#470))
REPRESENTATION_CONTEXT('','3D')
);
#466=(
GEOMETRIC_REPRESENTATION_CONTEXT(3)
GLOBAL_UNCERTAINTY_ASSIGNED_CONTEXT((#463))
GLOBAL_UNIT_ASSIGNED_CONTEXT((#468,#469,#470))
REPRESENTATION_CONTEXT('','3D')
);
#467=(
GEOMETRIC_REPRESENTATION_CONTEXT(3)
GLOBAL_UNCERTAINTY_ASSIGNED_CONTEXT((#464))
GLOBAL_UNIT_ASSIGNED_CONTEXT((#468,#469,#470))
REPRESENTATION_CONTEXT('','3D')
);
#468=(
LENGTH_UNIT()
NAMED_UNIT(*)
SI_UNIT(.CENTI.,.METRE.)
);
#469=(
NAMED_UNIT(*)
PLANE_ANGLE_UNIT()
SI_UNIT($,.RADIAN.)
);
#470=(
NAMED_UNIT(*)
SI_UNIT($,.STERADIAN.)
SOLID_ANGLE_UNIT()
);
#471=SHAPE_DEFINITION_REPRESENTATION(#473,#476);
#472=SHAPE_DEFINITION_REPRESENTATION(#474,#477);
#473=PRODUCT_DEFINITION_SHAPE('',$,#479);
#474=PRODUCT_DEFINITION_SHAPE('',$,#480);
#475=PRODUCT_DEFINITION_SHAPE($,$,#15);
#476=SHAPE_REPRESENTATION('',(#250,#292),#465);
#477=SHAPE_REPRESENTATION('',(#291),#466);
#478=PRODUCT_DEFINITION_CONTEXT('part definition',#486,'design');
#479=PRODUCT_DEFINITION('Product','Product',#481,#478);
#480=PRODUCT_DEFINITION('*S0','*S0',#482,#478);
#481=PRODUCT_DEFINITION_FORMATION('',$,#488);
#482=PRODUCT_DEFINITION_FORMATION('',$,#489);
#483=PRODUCT_RELATED_PRODUCT_CATEGORY('Product','Product',(#488));
#484=PRODUCT_RELATED_PRODUCT_CATEGORY('*S0','*S0',(#489));
#485=APPLICATION_PROTOCOL_DEFINITION('international standard',
'automotive_design',2009,#486);
#486=APPLICATION_CONTEXT(
'Core Data for Automotive Mechanical Design Process');
#487=PRODUCT_CONTEXT('part definition',#486,'mechanical');
#488=PRODUCT('Product','Product',$,(#487));
#489=PRODUCT('*S0','*S0',$,(#487));
#490=PRESENTATION_STYLE_ASSIGNMENT((#491));
#491=SURFACE_STYLE_USAGE(.BOTH.,#492);
#492=SURFACE_SIDE_STYLE('',(#493));
#493=SURFACE_STYLE_FILL_AREA(#494);
#494=FILL_AREA_STYLE('',(#495));
#495=FILL_AREA_STYLE_COLOUR('',#496);
#496=COLOUR_RGB('',0.901960784313726,0.901960784313726,0.901960784313726);
ENDSEC;
END-ISO-10303-21;
