ISO-10303-21;
HEADER;
/* Generated by software containing ST-Developer
 * from STEP Tools, Inc. (www.steptools.com) 
 */

FILE_DESCRIPTION(
/* description */ (''),
/* implementation_level */ '2;1');

FILE_NAME(
/* name */ '01104.100X_3D.stp',
/* time_stamp */ '2024-12-11T13:22:41+01:00',
/* author */ ('CAD'),
/* organization */ (''),
/* preprocessor_version */ 'ST-DEVELOPER v20',
/* originating_system */ 'AutoCAD Mechanical',
/* authorisation */ '');

FILE_SCHEMA (('AUTOMOTIVE_DESIGN { 1 0 10303 214 3 1 1 }'));
ENDSEC;

DATA;
#10=MECHANICAL_DESIGN_GEOMETRIC_PRESENTATION_REPRESENTATION('',(#18),#467);
#11=PRESENTATION_LAYER_ASSIGNMENT('2','Material (Versinkt)',(#19));
#12=ITEM_DEFINED_TRANSFORMATION($,$,#291,#292);
#13=(
REPRESENTATION_RELATIONSHIP($,$,#477,#476)
REPRESENTATION_RELATIONSHIP_WITH_TRANSFORMATION(#12)
SHAPE_REPRESENTATION_RELATIONSHIP()
);
#14=CONTEXT_DEPENDENT_SHAPE_REPRESENTATION(#13,#475);
#15=NEXT_ASSEMBLY_USAGE_OCCURRENCE('91F','91F','91F',#479,#480,'91F');
#16=SHAPE_REPRESENTATION_RELATIONSHIP('SRR','None',#476,#17);
#17=ADVANCED_BREP_SHAPE_REPRESENTATION('',(#19),#465);
#18=STYLED_ITEM('',(#490),#19);
#19=MANIFOLD_SOLID_BREP('8F3',#249);
#20=CYLINDRICAL_SURFACE('',#267,47.4999999999998);
#21=CYLINDRICAL_SURFACE('',#275,45.9999999999998);
#22=CYLINDRICAL_SURFACE('',#289,49.4999999999999);
#23=CYLINDRICAL_SURFACE('',#290,50.9999999999999);
#24=LINE('',#409,#33);
#25=LINE('',#419,#34);
#26=LINE('',#423,#35);
#27=LINE('',#426,#36);
#28=LINE('',#430,#37);
#29=LINE('',#434,#38);
#30=LINE('',#446,#39);
#31=LINE('',#457,#40);
#32=LINE('',#459,#41);
#33=VECTOR('',#319,49.2499999999998);
#34=VECTOR('',#332,47.4999999999998);
#35=VECTOR('',#337,47.281278341185);
#36=VECTOR('',#340,46.3154106588015);
#37=VECTOR('',#345,45.7841323176162);
#38=VECTOR('',#350,45.9999999999998);
#39=VECTOR('',#365,47.8342124654507);
#40=VECTOR('',#380,49.4999999999999);
#41=VECTOR('',#383,50.9999999999999);
#42=CONICAL_SURFACE('',#260,49.2499999999998,0.336674819386723);
#43=CONICAL_SURFACE('',#269,47.281278341185,0.087266462599707);
#44=CONICAL_SURFACE('',#271,46.3154106588015,1.48352986419518);
#45=CONICAL_SURFACE('',#273,45.7841323176162,0.0872664625997085);
#46=CONICAL_SURFACE('',#282,47.8342124654507,0.33667481938672);
#47=TOROIDAL_SURFACE('',#254,39.0000000000002,11.9999999999996);
#48=TOROIDAL_SURFACE('',#263,59.4999999999973,11.9999999999975);
#49=TOROIDAL_SURFACE('',#278,59.4999999999986,13.4999999999988);
#50=TOROIDAL_SURFACE('',#285,38.9999999999976,10.5000000000022);
#51=FACE_BOUND('',#67,.T.);
#52=FACE_OUTER_BOUND('',#66,.T.);
#53=FACE_OUTER_BOUND('',#68,.T.);
#54=FACE_OUTER_BOUND('',#69,.T.);
#55=FACE_OUTER_BOUND('',#70,.T.);
#56=FACE_OUTER_BOUND('',#71,.T.);
#57=FACE_OUTER_BOUND('',#72,.T.);
#58=FACE_OUTER_BOUND('',#73,.T.);
#59=FACE_OUTER_BOUND('',#74,.T.);
#60=FACE_OUTER_BOUND('',#75,.T.);
#61=FACE_OUTER_BOUND('',#76,.T.);
#62=FACE_OUTER_BOUND('',#77,.T.);
#63=FACE_OUTER_BOUND('',#78,.T.);
#64=FACE_OUTER_BOUND('',#79,.T.);
#65=FACE_OUTER_BOUND('',#80,.T.);
#66=EDGE_LOOP('',(#164));
#67=EDGE_LOOP('',(#165));
#68=EDGE_LOOP('',(#166,#167,#168,#169,#170,#171));
#69=EDGE_LOOP('',(#172,#173,#174,#175,#176,#177));
#70=EDGE_LOOP('',(#178,#179,#180,#181,#182,#183));
#71=EDGE_LOOP('',(#184,#185,#186,#187,#188));
#72=EDGE_LOOP('',(#189,#190,#191,#192));
#73=EDGE_LOOP('',(#193,#194,#195,#196));
#74=EDGE_LOOP('',(#197,#198,#199,#200));
#75=EDGE_LOOP('',(#201,#202,#203,#204,#205));
#76=EDGE_LOOP('',(#206,#207,#208,#209,#210,#211));
#77=EDGE_LOOP('',(#212,#213,#214,#215,#216,#217));
#78=EDGE_LOOP('',(#218,#219,#220,#221,#222,#223));
#79=EDGE_LOOP('',(#224,#225,#226,#227,#228));
#80=EDGE_LOOP('',(#229,#230,#231,#232,#233));
#81=CIRCLE('',#252,50.9999999999999);
#82=CIRCLE('',#253,49.4999999999999);
#83=CIRCLE('',#255,50.326300276392);
#84=CIRCLE('',#256,11.9999999999996);
#85=CIRCLE('',#257,50.9999999999998);
#86=CIRCLE('',#258,50.9999999999998);
#87=CIRCLE('',#259,50.326300276392);
#88=CIRCLE('',#261,48.1736997236075);
#89=CIRCLE('',#262,48.1736997236075);
#90=CIRCLE('',#264,11.9999999999975);
#91=CIRCLE('',#265,47.4999999999998);
#92=CIRCLE('',#266,47.4999999999998);
#93=CIRCLE('',#268,47.4999999999998);
#94=CIRCLE('',#270,47.0625566823703);
#95=CIRCLE('',#272,45.5682646352327);
#96=CIRCLE('',#274,45.9999999999998);
#97=CIRCLE('',#276,45.9999999999998);
#98=CIRCLE('',#277,45.9999999999998);
#99=CIRCLE('',#279,46.7579121890584);
#100=CIRCLE('',#280,13.4999999999988);
#101=CIRCLE('',#281,46.7579121890584);
#102=CIRCLE('',#283,48.910512741843);
#103=CIRCLE('',#284,48.910512741843);
#104=CIRCLE('',#286,10.5000000000022);
#105=CIRCLE('',#287,49.4999999999998);
#106=CIRCLE('',#288,49.4999999999998);
#107=VERTEX_POINT('',#390);
#108=VERTEX_POINT('',#392);
#109=VERTEX_POINT('',#395);
#110=VERTEX_POINT('',#396);
#111=VERTEX_POINT('',#398);
#112=VERTEX_POINT('',#400);
#113=VERTEX_POINT('',#405);
#114=VERTEX_POINT('',#406);
#115=VERTEX_POINT('',#411);
#116=VERTEX_POINT('',#413);
#117=VERTEX_POINT('',#417);
#118=VERTEX_POINT('',#421);
#119=VERTEX_POINT('',#425);
#120=VERTEX_POINT('',#429);
#121=VERTEX_POINT('',#433);
#122=VERTEX_POINT('',#435);
#123=VERTEX_POINT('',#439);
#124=VERTEX_POINT('',#440);
#125=VERTEX_POINT('',#445);
#126=VERTEX_POINT('',#447);
#127=VERTEX_POINT('',#451);
#128=VERTEX_POINT('',#453);
#129=EDGE_CURVE('',#107,#107,#81,.T.);
#130=EDGE_CURVE('',#108,#108,#82,.T.);
#131=EDGE_CURVE('',#109,#110,#83,.T.);
#132=EDGE_CURVE('',#109,#111,#84,.T.);
#133=EDGE_CURVE('',#111,#112,#85,.T.);
#134=EDGE_CURVE('',#112,#111,#86,.T.);
#135=EDGE_CURVE('',#110,#109,#87,.T.);
#136=EDGE_CURVE('',#113,#114,#88,.T.);
#137=EDGE_CURVE('',#114,#113,#89,.T.);
#138=EDGE_CURVE('',#114,#110,#24,.T.);
#139=EDGE_CURVE('',#113,#115,#90,.T.);
#140=EDGE_CURVE('',#116,#115,#91,.T.);
#141=EDGE_CURVE('',#115,#116,#92,.T.);
#142=EDGE_CURVE('',#117,#117,#93,.T.);
#143=EDGE_CURVE('',#117,#116,#25,.T.);
#144=EDGE_CURVE('',#118,#118,#94,.T.);
#145=EDGE_CURVE('',#118,#117,#26,.T.);
#146=EDGE_CURVE('',#118,#119,#27,.T.);
#147=EDGE_CURVE('',#119,#119,#95,.T.);
#148=EDGE_CURVE('',#119,#120,#28,.T.);
#149=EDGE_CURVE('',#120,#120,#96,.T.);
#150=EDGE_CURVE('',#120,#121,#29,.T.);
#151=EDGE_CURVE('',#122,#121,#97,.T.);
#152=EDGE_CURVE('',#121,#122,#98,.T.);
#153=EDGE_CURVE('',#123,#124,#99,.T.);
#154=EDGE_CURVE('',#123,#122,#100,.T.);
#155=EDGE_CURVE('',#124,#123,#101,.T.);
#156=EDGE_CURVE('',#124,#125,#30,.T.);
#157=EDGE_CURVE('',#126,#125,#102,.T.);
#158=EDGE_CURVE('',#125,#126,#103,.T.);
#159=EDGE_CURVE('',#126,#127,#104,.T.);
#160=EDGE_CURVE('',#128,#127,#105,.T.);
#161=EDGE_CURVE('',#127,#128,#106,.T.);
#162=EDGE_CURVE('',#128,#108,#31,.T.);
#163=EDGE_CURVE('',#112,#107,#32,.T.);
#164=ORIENTED_EDGE('',*,*,#129,.T.);
#165=ORIENTED_EDGE('',*,*,#130,.T.);
#166=ORIENTED_EDGE('',*,*,#131,.F.);
#167=ORIENTED_EDGE('',*,*,#132,.T.);
#168=ORIENTED_EDGE('',*,*,#133,.T.);
#169=ORIENTED_EDGE('',*,*,#134,.T.);
#170=ORIENTED_EDGE('',*,*,#132,.F.);
#171=ORIENTED_EDGE('',*,*,#135,.F.);
#172=ORIENTED_EDGE('',*,*,#136,.F.);
#173=ORIENTED_EDGE('',*,*,#137,.F.);
#174=ORIENTED_EDGE('',*,*,#138,.T.);
#175=ORIENTED_EDGE('',*,*,#135,.T.);
#176=ORIENTED_EDGE('',*,*,#131,.T.);
#177=ORIENTED_EDGE('',*,*,#138,.F.);
#178=ORIENTED_EDGE('',*,*,#136,.T.);
#179=ORIENTED_EDGE('',*,*,#137,.T.);
#180=ORIENTED_EDGE('',*,*,#139,.T.);
#181=ORIENTED_EDGE('',*,*,#140,.F.);
#182=ORIENTED_EDGE('',*,*,#141,.F.);
#183=ORIENTED_EDGE('',*,*,#139,.F.);
#184=ORIENTED_EDGE('',*,*,#142,.F.);
#185=ORIENTED_EDGE('',*,*,#143,.T.);
#186=ORIENTED_EDGE('',*,*,#140,.T.);
#187=ORIENTED_EDGE('',*,*,#141,.T.);
#188=ORIENTED_EDGE('',*,*,#143,.F.);
#189=ORIENTED_EDGE('',*,*,#144,.F.);
#190=ORIENTED_EDGE('',*,*,#145,.T.);
#191=ORIENTED_EDGE('',*,*,#142,.T.);
#192=ORIENTED_EDGE('',*,*,#145,.F.);
#193=ORIENTED_EDGE('',*,*,#144,.T.);
#194=ORIENTED_EDGE('',*,*,#146,.T.);
#195=ORIENTED_EDGE('',*,*,#147,.F.);
#196=ORIENTED_EDGE('',*,*,#146,.F.);
#197=ORIENTED_EDGE('',*,*,#147,.T.);
#198=ORIENTED_EDGE('',*,*,#148,.T.);
#199=ORIENTED_EDGE('',*,*,#149,.F.);
#200=ORIENTED_EDGE('',*,*,#148,.F.);
#201=ORIENTED_EDGE('',*,*,#149,.T.);
#202=ORIENTED_EDGE('',*,*,#150,.T.);
#203=ORIENTED_EDGE('',*,*,#151,.F.);
#204=ORIENTED_EDGE('',*,*,#152,.F.);
#205=ORIENTED_EDGE('',*,*,#150,.F.);
#206=ORIENTED_EDGE('',*,*,#153,.F.);
#207=ORIENTED_EDGE('',*,*,#154,.T.);
#208=ORIENTED_EDGE('',*,*,#151,.T.);
#209=ORIENTED_EDGE('',*,*,#152,.T.);
#210=ORIENTED_EDGE('',*,*,#154,.F.);
#211=ORIENTED_EDGE('',*,*,#155,.F.);
#212=ORIENTED_EDGE('',*,*,#153,.T.);
#213=ORIENTED_EDGE('',*,*,#156,.T.);
#214=ORIENTED_EDGE('',*,*,#157,.F.);
#215=ORIENTED_EDGE('',*,*,#158,.F.);
#216=ORIENTED_EDGE('',*,*,#156,.F.);
#217=ORIENTED_EDGE('',*,*,#155,.T.);
#218=ORIENTED_EDGE('',*,*,#157,.T.);
#219=ORIENTED_EDGE('',*,*,#158,.T.);
#220=ORIENTED_EDGE('',*,*,#159,.T.);
#221=ORIENTED_EDGE('',*,*,#160,.F.);
#222=ORIENTED_EDGE('',*,*,#161,.F.);
#223=ORIENTED_EDGE('',*,*,#159,.F.);
#224=ORIENTED_EDGE('',*,*,#161,.T.);
#225=ORIENTED_EDGE('',*,*,#162,.T.);
#226=ORIENTED_EDGE('',*,*,#130,.F.);
#227=ORIENTED_EDGE('',*,*,#162,.F.);
#228=ORIENTED_EDGE('',*,*,#160,.T.);
#229=ORIENTED_EDGE('',*,*,#133,.F.);
#230=ORIENTED_EDGE('',*,*,#134,.F.);
#231=ORIENTED_EDGE('',*,*,#163,.T.);
#232=ORIENTED_EDGE('',*,*,#129,.F.);
#233=ORIENTED_EDGE('',*,*,#163,.F.);
#234=PLANE('',#251);
#235=ADVANCED_FACE('',(#52,#51),#234,.T.);
#236=ADVANCED_FACE('',(#53),#47,.T.);
#237=ADVANCED_FACE('',(#54),#42,.T.);
#238=ADVANCED_FACE('',(#55),#48,.F.);
#239=ADVANCED_FACE('',(#56),#20,.T.);
#240=ADVANCED_FACE('',(#57),#43,.T.);
#241=ADVANCED_FACE('',(#58),#44,.F.);
#242=ADVANCED_FACE('',(#59),#45,.F.);
#243=ADVANCED_FACE('',(#60),#21,.F.);
#244=ADVANCED_FACE('',(#61),#49,.T.);
#245=ADVANCED_FACE('',(#62),#46,.F.);
#246=ADVANCED_FACE('',(#63),#50,.F.);
#247=ADVANCED_FACE('',(#64),#22,.F.);
#248=ADVANCED_FACE('',(#65),#23,.T.);
#249=CLOSED_SHELL('',(#235,#236,#237,#238,#239,#240,#241,#242,#243,#244,
#245,#246,#247,#248));
#250=AXIS2_PLACEMENT_3D('',#388,#293,#294);
#251=AXIS2_PLACEMENT_3D('',#389,#295,#296);
#252=AXIS2_PLACEMENT_3D('',#391,#297,#298);
#253=AXIS2_PLACEMENT_3D('',#393,#299,#300);
#254=AXIS2_PLACEMENT_3D('',#394,#301,#302);
#255=AXIS2_PLACEMENT_3D('',#397,#303,#304);
#256=AXIS2_PLACEMENT_3D('',#399,#305,#306);
#257=AXIS2_PLACEMENT_3D('',#401,#307,#308);
#258=AXIS2_PLACEMENT_3D('',#402,#309,#310);
#259=AXIS2_PLACEMENT_3D('',#403,#311,#312);
#260=AXIS2_PLACEMENT_3D('',#404,#313,#314);
#261=AXIS2_PLACEMENT_3D('',#407,#315,#316);
#262=AXIS2_PLACEMENT_3D('',#408,#317,#318);
#263=AXIS2_PLACEMENT_3D('',#410,#320,#321);
#264=AXIS2_PLACEMENT_3D('',#412,#322,#323);
#265=AXIS2_PLACEMENT_3D('',#414,#324,#325);
#266=AXIS2_PLACEMENT_3D('',#415,#326,#327);
#267=AXIS2_PLACEMENT_3D('',#416,#328,#329);
#268=AXIS2_PLACEMENT_3D('',#418,#330,#331);
#269=AXIS2_PLACEMENT_3D('',#420,#333,#334);
#270=AXIS2_PLACEMENT_3D('',#422,#335,#336);
#271=AXIS2_PLACEMENT_3D('',#424,#338,#339);
#272=AXIS2_PLACEMENT_3D('',#427,#341,#342);
#273=AXIS2_PLACEMENT_3D('',#428,#343,#344);
#274=AXIS2_PLACEMENT_3D('',#431,#346,#347);
#275=AXIS2_PLACEMENT_3D('',#432,#348,#349);
#276=AXIS2_PLACEMENT_3D('',#436,#351,#352);
#277=AXIS2_PLACEMENT_3D('',#437,#353,#354);
#278=AXIS2_PLACEMENT_3D('',#438,#355,#356);
#279=AXIS2_PLACEMENT_3D('',#441,#357,#358);
#280=AXIS2_PLACEMENT_3D('',#442,#359,#360);
#281=AXIS2_PLACEMENT_3D('',#443,#361,#362);
#282=AXIS2_PLACEMENT_3D('',#444,#363,#364);
#283=AXIS2_PLACEMENT_3D('',#448,#366,#367);
#284=AXIS2_PLACEMENT_3D('',#449,#368,#369);
#285=AXIS2_PLACEMENT_3D('',#450,#370,#371);
#286=AXIS2_PLACEMENT_3D('',#452,#372,#373);
#287=AXIS2_PLACEMENT_3D('',#454,#374,#375);
#288=AXIS2_PLACEMENT_3D('',#455,#376,#377);
#289=AXIS2_PLACEMENT_3D('',#456,#378,#379);
#290=AXIS2_PLACEMENT_3D('',#458,#381,#382);
#291=AXIS2_PLACEMENT_3D('',#460,#384,#385);
#292=AXIS2_PLACEMENT_3D('',#461,#386,#387);
#293=DIRECTION('axis',(0.,0.,1.));
#294=DIRECTION('refdir',(1.,0.,0.));
#295=DIRECTION('center_axis',(0.,0.,1.));
#296=DIRECTION('ref_axis',(1.,0.,0.));
#297=DIRECTION('center_axis',(0.,0.,1.));
#298=DIRECTION('ref_axis',(1.,-1.39322105051E-16,0.));
#299=DIRECTION('center_axis',(0.,0.,-1.));
#300=DIRECTION('ref_axis',(1.,-1.43543987022243E-16,0.));
#301=DIRECTION('center_axis',(0.,-6.12323399573677E-17,-1.));
#302=DIRECTION('ref_axis',(0.,1.,0.));
#303=DIRECTION('center_axis',(0.,-6.12323399573677E-17,-1.));
#304=DIRECTION('ref_axis',(1.,0.,0.));
#305=DIRECTION('center_axis',(-1.,0.,0.));
#306=DIRECTION('ref_axis',(0.,-1.,6.12323399573677E-17));
#307=DIRECTION('center_axis',(0.,-6.12323399573677E-17,-1.));
#308=DIRECTION('ref_axis',(1.,0.,0.));
#309=DIRECTION('center_axis',(0.,-6.12323399573677E-17,-1.));
#310=DIRECTION('ref_axis',(1.,0.,0.));
#311=DIRECTION('center_axis',(0.,-6.12323399573677E-17,-1.));
#312=DIRECTION('ref_axis',(1.,0.,0.));
#313=DIRECTION('center_axis',(0.,6.12323399573677E-17,1.));
#314=DIRECTION('ref_axis',(-1.,0.,0.));
#315=DIRECTION('center_axis',(0.,-6.12323399573677E-17,-1.));
#316=DIRECTION('ref_axis',(1.,0.,0.));
#317=DIRECTION('center_axis',(0.,-6.12323399573677E-17,-1.));
#318=DIRECTION('ref_axis',(1.,0.,0.));
#319=DIRECTION('',(0.330350424728102,1.73383967245825E-17,0.943858356366019));
#320=DIRECTION('center_axis',(0.,-6.12323399573677E-17,-1.));
#321=DIRECTION('ref_axis',(0.,1.,0.));
#322=DIRECTION('center_axis',(-1.,0.,0.));
#323=DIRECTION('ref_axis',(0.,-1.,6.12323399573677E-17));
#324=DIRECTION('center_axis',(0.,-6.12323399573677E-17,-1.));
#325=DIRECTION('ref_axis',(1.,0.,0.));
#326=DIRECTION('center_axis',(0.,-6.12323399573677E-17,-1.));
#327=DIRECTION('ref_axis',(1.,0.,0.));
#328=DIRECTION('center_axis',(0.,-6.12323399573677E-17,-1.));
#329=DIRECTION('ref_axis',(-1.,0.,0.));
#330=DIRECTION('center_axis',(0.,-6.12323399573677E-17,-1.));
#331=DIRECTION('ref_axis',(1.,0.,0.));
#332=DIRECTION('',(0.,6.12323399573677E-17,1.));
#333=DIRECTION('center_axis',(0.,6.12323399573677E-17,1.));
#334=DIRECTION('ref_axis',(-1.,0.,0.));
#335=DIRECTION('center_axis',(0.,-6.12323399573677E-17,-1.));
#336=DIRECTION('ref_axis',(1.,0.,0.));
#337=DIRECTION('',(0.0871557427476488,5.03258322789592E-17,0.996194698091746));
#338=DIRECTION('center_axis',(0.,-6.12323399573677E-17,-1.));
#339=DIRECTION('ref_axis',(-1.,0.,0.));
#340=DIRECTION('',(-0.996194698091746,1.27335414903723E-16,0.0871557427476553));
#341=DIRECTION('center_axis',(0.,-6.12323399573677E-17,-1.));
#342=DIRECTION('ref_axis',(1.,0.,0.));
#343=DIRECTION('center_axis',(0.,6.12323399573677E-17,1.));
#344=DIRECTION('ref_axis',(-1.,0.,0.));
#345=DIRECTION('',(0.0871557427476503,5.0325832278959E-17,0.996194698091746));
#346=DIRECTION('center_axis',(0.,-6.12323399573677E-17,-1.));
#347=DIRECTION('ref_axis',(1.,0.,0.));
#348=DIRECTION('center_axis',(0.,-6.12323399573677E-17,-1.));
#349=DIRECTION('ref_axis',(-1.,0.,0.));
#350=DIRECTION('',(0.,6.12323399573677E-17,1.));
#351=DIRECTION('center_axis',(0.,-6.12323399573677E-17,-1.));
#352=DIRECTION('ref_axis',(1.,0.,0.));
#353=DIRECTION('center_axis',(0.,-6.12323399573677E-17,-1.));
#354=DIRECTION('ref_axis',(1.,0.,0.));
#355=DIRECTION('center_axis',(0.,-6.12323399573677E-17,-1.));
#356=DIRECTION('ref_axis',(0.,1.,0.));
#357=DIRECTION('center_axis',(0.,-6.12323399573677E-17,-1.));
#358=DIRECTION('ref_axis',(1.,0.,0.));
#359=DIRECTION('center_axis',(-1.,0.,0.));
#360=DIRECTION('ref_axis',(0.,-1.,6.12323399573677E-17));
#361=DIRECTION('center_axis',(0.,-6.12323399573677E-17,-1.));
#362=DIRECTION('ref_axis',(1.,0.,0.));
#363=DIRECTION('center_axis',(0.,6.12323399573677E-17,1.));
#364=DIRECTION('ref_axis',(-1.,0.,0.));
#365=DIRECTION('',(0.330350424728099,1.73383967245829E-17,0.94385835636602));
#366=DIRECTION('center_axis',(0.,-6.12323399573677E-17,-1.));
#367=DIRECTION('ref_axis',(1.,0.,0.));
#368=DIRECTION('center_axis',(0.,-6.12323399573677E-17,-1.));
#369=DIRECTION('ref_axis',(1.,0.,0.));
#370=DIRECTION('center_axis',(0.,-6.12323399573677E-17,-1.));
#371=DIRECTION('ref_axis',(0.,1.,0.));
#372=DIRECTION('center_axis',(-1.,0.,0.));
#373=DIRECTION('ref_axis',(0.,-1.,6.12323399573677E-17));
#374=DIRECTION('center_axis',(0.,-6.12323399573677E-17,-1.));
#375=DIRECTION('ref_axis',(1.,0.,0.));
#376=DIRECTION('center_axis',(0.,-6.12323399573677E-17,-1.));
#377=DIRECTION('ref_axis',(1.,0.,0.));
#378=DIRECTION('center_axis',(0.,-6.12323399573677E-17,-1.));
#379=DIRECTION('ref_axis',(-1.,0.,0.));
#380=DIRECTION('',(0.,6.12323399573677E-17,1.));
#381=DIRECTION('center_axis',(0.,-6.12323399573677E-17,-1.));
#382=DIRECTION('ref_axis',(-1.,0.,0.));
#383=DIRECTION('',(0.,6.12323399573677E-17,1.));
#384=DIRECTION('axis',(0.,0.,1.));
#385=DIRECTION('refdir',(1.,0.,0.));
#386=DIRECTION('',(0.,0.,1.));
#387=DIRECTION('',(1.,0.,0.));
#388=CARTESIAN_POINT('',(0.,0.,0.));
#389=CARTESIAN_POINT('Origin',(0.,2.30926389122033E-14,3095.));
#390=CARTESIAN_POINT('',(50.9999999999999,1.50705833971515E-14,3095.));
#391=CARTESIAN_POINT('Origin',(0.,2.8421709430404E-14,3095.));
#392=CARTESIAN_POINT('',(49.4999999999999,1.96245085552454E-13,3095.));
#393=CARTESIAN_POINT('Origin',(0.,7.105427357601E-15,3095.));
#394=CARTESIAN_POINT('Origin',(0.,1.94721389268204E-14,109.078697487144));
#395=CARTESIAN_POINT('',(0.,-50.326300276392,105.114492390407));
#396=CARTESIAN_POINT('',(50.326300276392,1.30662071180351E-14,105.114492390407));
#397=CARTESIAN_POINT('Origin',(0.,1.92294013726763E-14,105.114492390407));
#398=CARTESIAN_POINT('',(0.,-50.9999999999998,109.078697487144));
#399=CARTESIAN_POINT('Origin',(0.,-39.0000000000002,109.078697487144));
#400=CARTESIAN_POINT('',(50.9999999999999,1.32264402511689E-14,109.078697487144));
#401=CARTESIAN_POINT('Origin',(0.,1.94721389268204E-14,109.078697487144));
#402=CARTESIAN_POINT('Origin',(0.,1.94721389268204E-14,109.078697487144));
#403=CARTESIAN_POINT('Origin',(0.,1.92294013726763E-14,105.114492390407));
#404=CARTESIAN_POINT('Origin',(0.,1.90411031314755E-14,102.039348743572));
#405=CARTESIAN_POINT('',(0.,-48.1736997236075,98.9642050967369));
#406=CARTESIAN_POINT('',(48.1736997236075,1.29532281733146E-14,98.9642050967369));
#407=CARTESIAN_POINT('Origin',(0.,1.88528048902748E-14,98.9642050967369));
#408=CARTESIAN_POINT('Origin',(0.,1.88528048902748E-14,98.9642050967369));
#409=CARTESIAN_POINT('',(49.2499999999998,1.30097176456748E-14,102.039348743572));
#410=CARTESIAN_POINT('Origin',(0.,1.86100673361307E-14,95.0000000000003));
#411=CARTESIAN_POINT('',(0.,-47.4999999999998,94.9999999999999));
#412=CARTESIAN_POINT('Origin',(0.,-59.4999999999973,95.0000000000003));
#413=CARTESIAN_POINT('',(47.4999999999998,1.27929950401808E-14,94.9999999999999));
#414=CARTESIAN_POINT('Origin',(0.,1.86100673361307E-14,94.9999999999999));
#415=CARTESIAN_POINT('Origin',(0.,1.86100673361307E-14,94.9999999999999));
#416=CARTESIAN_POINT('Origin',(0.,1.58546120380491E-14,49.9999999999999));
#417=CARTESIAN_POINT('',(47.4999999999998,7.28208444401767E-15,5.));
#418=CARTESIAN_POINT('Origin',(0.,1.30991567399676E-14,5.));
#419=CARTESIAN_POINT('',(47.4999999999998,1.00375397420992E-14,49.9999999999999));
#420=CARTESIAN_POINT('Origin',(0.,1.29460758900742E-14,2.5));
#421=CARTESIAN_POINT('',(47.0625566823703,7.02949410010518E-15,0.));
#422=CARTESIAN_POINT('Origin',(0.,1.27929950401807E-14,0.));
#423=CARTESIAN_POINT('',(47.281278341185,7.15578927206142E-15,2.5));
#424=CARTESIAN_POINT('Origin',(0.,1.27969976027326E-14,0.0653668070607409));
#425=CARTESIAN_POINT('',(45.5682646352327,7.22049722246076E-15,0.130733614121482));
#426=CARTESIAN_POINT('',(46.3154106588015,7.12499566128297E-15,0.0653668070607409));
#427=CARTESIAN_POINT('Origin',(0.,1.28010001652845E-14,0.130733614121482));
#428=CARTESIAN_POINT('Origin',(0.,1.29520835489003E-14,2.59811251424202));
#429=CARTESIAN_POINT('',(45.9999999999998,7.46979165643831E-15,5.0654914143625));
#430=CARTESIAN_POINT('',(45.7841323176162,7.34514443944954E-15,2.59811251424202));
#431=CARTESIAN_POINT('Origin',(0.,1.31031669325161E-14,5.0654914143625));
#432=CARTESIAN_POINT('Origin',(0.,1.58566171343234E-14,50.0327457071812));
#433=CARTESIAN_POINT('',(45.9999999999998,1.29766920600529E-14,94.9999999999999));
#434=CARTESIAN_POINT('',(45.9999999999998,1.02232418582456E-14,50.0327457071812));
#435=CARTESIAN_POINT('',(0.,-45.9999999999998,94.9999999999999));
#436=CARTESIAN_POINT('Origin',(0.,1.86100673361307E-14,94.9999999999999));
#437=CARTESIAN_POINT('Origin',(0.,1.86100673361307E-14,94.9999999999999));
#438=CARTESIAN_POINT('Origin',(0.,1.86100673361307E-14,95.0000000000002));
#439=CARTESIAN_POINT('',(0.,-46.7579121890584,99.459730733829));
#440=CARTESIAN_POINT('',(46.7579121890585,1.31569543348285E-14,99.459730733829));
#441=CARTESIAN_POINT('Origin',(0.,1.88831470845428E-14,99.459730733829));
#442=CARTESIAN_POINT('Origin',(0.,-59.4999999999986,95.0000000000002));
#443=CARTESIAN_POINT('Origin',(0.,1.88831470845428E-14,99.459730733829));
#444=CARTESIAN_POINT('Origin',(0.,1.90714453257436E-14,102.534874380664));
#445=CARTESIAN_POINT('',(48.910512741843,1.32699332795489E-14,105.610018027499));
#446=CARTESIAN_POINT('',(47.8342124654507,1.32134438071887E-14,102.534874380664));
#447=CARTESIAN_POINT('',(0.,-48.910512741843,105.610018027499));
#448=CARTESIAN_POINT('Origin',(0.,1.92597435669443E-14,105.610018027499));
#449=CARTESIAN_POINT('Origin',(0.,1.92597435669443E-14,105.610018027499));
#450=CARTESIAN_POINT('Origin',(0.,1.94721389268205E-14,109.078697487145));
#451=CARTESIAN_POINT('',(0.,-49.4999999999998,109.078697487144));
#452=CARTESIAN_POINT('Origin',(0.,-38.9999999999976,109.078697487145));
#453=CARTESIAN_POINT('',(49.4999999999999,1.3410137271041E-14,109.078697487144));
#454=CARTESIAN_POINT('Origin',(0.,1.94721389268204E-14,109.078697487144));
#455=CARTESIAN_POINT('Origin',(0.,1.94721389268204E-14,109.078697487144));
#456=CARTESIAN_POINT('Origin',(0.,3.43491881208175E-14,352.039348743572));
#457=CARTESIAN_POINT('',(49.4999999999999,2.82871864650381E-14,352.039348743572));
#458=CARTESIAN_POINT('Origin',(0.,3.43491881208175E-14,352.039348743572));
#459=CARTESIAN_POINT('',(50.9999999999999,2.8103489445166E-14,352.039348743572));
#460=CARTESIAN_POINT('',(0.,0.,0.));
#461=CARTESIAN_POINT('',(0.,0.,0.));
#462=UNCERTAINTY_MEASURE_WITH_UNIT(LENGTH_MEASURE(0.001),#468,
'DISTANCE_ACCURACY_VALUE',
'Maximum model space distance between geometric entities at asserted c
onnectivities');
#463=UNCERTAINTY_MEASURE_WITH_UNIT(LENGTH_MEASURE(0.001),#468,
'DISTANCE_ACCURACY_VALUE',
'Maximum model space distance between geometric entities at asserted c
onnectivities');
#464=UNCERTAINTY_MEASURE_WITH_UNIT(LENGTH_MEASURE(0.001),#468,
'DISTANCE_ACCURACY_VALUE',
'Maximum model space distance between geometric entities at asserted c
onnectivities');
#465=(
GEOMETRIC_REPRESENTATION_CONTEXT(3)
GLOBAL_UNCERTAINTY_ASSIGNED_CONTEXT((#462))
GLOBAL_UNIT_ASSIGNED_CONTEXT((#468,#469,#470))
REPRESENTATION_CONTEXT('','3D')
);
#466=(
GEOMETRIC_REPRESENTATION_CONTEXT(3)
GLOBAL_UNCERTAINTY_ASSIGNED_CONTEXT((#463))
GLOBAL_UNIT_ASSIGNED_CONTEXT((#468,#469,#470))
REPRESENTATION_CONTEXT('','3D')
);
#467=(
GEOMETRIC_REPRESENTATION_CONTEXT(3)
GLOBAL_UNCERTAINTY_ASSIGNED_CONTEXT((#464))
GLOBAL_UNIT_ASSIGNED_CONTEXT((#468,#469,#470))
REPRESENTATION_CONTEXT('','3D')
);
#468=(
LENGTH_UNIT()
NAMED_UNIT(*)
SI_UNIT(.CENTI.,.METRE.)
);
#469=(
NAMED_UNIT(*)
PLANE_ANGLE_UNIT()
SI_UNIT($,.RADIAN.)
);
#470=(
NAMED_UNIT(*)
SI_UNIT($,.STERADIAN.)
SOLID_ANGLE_UNIT()
);
#471=SHAPE_DEFINITION_REPRESENTATION(#473,#476);
#472=SHAPE_DEFINITION_REPRESENTATION(#474,#477);
#473=PRODUCT_DEFINITION_SHAPE('',$,#479);
#474=PRODUCT_DEFINITION_SHAPE('',$,#480);
#475=PRODUCT_DEFINITION_SHAPE($,$,#15);
#476=SHAPE_REPRESENTATION('',(#250,#292),#465);
#477=SHAPE_REPRESENTATION('',(#291),#466);
#478=PRODUCT_DEFINITION_CONTEXT('part definition',#486,'design');
#479=PRODUCT_DEFINITION('Product','Product',#481,#478);
#480=PRODUCT_DEFINITION('*S0','*S0',#482,#478);
#481=PRODUCT_DEFINITION_FORMATION('',$,#488);
#482=PRODUCT_DEFINITION_FORMATION('',$,#489);
#483=PRODUCT_RELATED_PRODUCT_CATEGORY('Product','Product',(#488));
#484=PRODUCT_RELATED_PRODUCT_CATEGORY('*S0','*S0',(#489));
#485=APPLICATION_PROTOCOL_DEFINITION('international standard',
'automotive_design',2009,#486);
#486=APPLICATION_CONTEXT(
'Core Data for Automotive Mechanical Design Process');
#487=PRODUCT_CONTEXT('part definition',#486,'mechanical');
#488=PRODUCT('Product','Product',$,(#487));
#489=PRODUCT('*S0','*S0',$,(#487));
#490=PRESENTATION_STYLE_ASSIGNMENT((#491));
#491=SURFACE_STYLE_USAGE(.BOTH.,#492);
#492=SURFACE_SIDE_STYLE('',(#493));
#493=SURFACE_STYLE_FILL_AREA(#494);
#494=FILL_AREA_STYLE('',(#495));
#495=FILL_AREA_STYLE_COLOUR('',#496);
#496=COLOUR_RGB('',0.901960784313726,0.901960784313726,0.901960784313726);
ENDSEC;
END-ISO-10303-21;
