ISO-10303-21;
HEADER;
/* Generated by software containing ST-Developer
 * from STEP Tools, Inc. (www.steptools.com) 
 */

FILE_DESCRIPTION(
/* description */ (''),
/* implementation_level */ '2;1');

FILE_NAME(
/* name */ '00937.100X_3D.stp',
/* time_stamp */ '2024-12-11T13:01:44+01:00',
/* author */ ('CAD'),
/* organization */ (''),
/* preprocessor_version */ 'ST-DEVELOPER v20',
/* originating_system */ 'AutoCAD Mechanical',
/* authorisation */ '');

FILE_SCHEMA (('AUTOMOTIVE_DESIGN { 1 0 10303 214 3 1 1 }'));
ENDSEC;

DATA;
#10=MECHANICAL_DESIGN_GEOMETRIC_PRESENTATION_REPRESENTATION('',(#261,#262),
#516);
#11=PRESENTATION_LAYER_ASSIGNMENT('2','DEFPOINTS',(#263));
#12=PRESENTATION_LAYER_ASSIGNMENT('3','Dichtelement',(#18));
#13=ADVANCED_BREP_SHAPE_REPRESENTATION('',(#18),#515);
#14=SHAPE_REPRESENTATION_RELATIONSHIP('SRR','None',#522,#16);
#15=SHAPE_REPRESENTATION_RELATIONSHIP('SRR','None',#522,#13);
#16=GEOMETRICALLY_BOUNDED_SURFACE_SHAPE_REPRESENTATION('',(#17),#515);
#17=GEOMETRIC_SET('GEOSET',(#263));
#18=MANIFOLD_SOLID_BREP('348',#260);
#19=FACE_BOUND('',#59,.T.);
#20=FACE_BOUND('',#63,.T.);
#21=FACE_BOUND('',#66,.T.);
#22=FACE_BOUND('',#69,.T.);
#23=FACE_BOUND('',#77,.T.);
#24=PLANE('',#292);
#25=PLANE('',#300);
#26=PLANE('',#305);
#27=PLANE('',#309);
#28=PLANE('',#328);
#29=CYLINDRICAL_SURFACE('',#290,59.25);
#30=CYLINDRICAL_SURFACE('',#294,56.25);
#31=CYLINDRICAL_SURFACE('',#311,49.75);
#32=CYLINDRICAL_SURFACE('',#320,53.25);
#33=CONICAL_SURFACE('',#288,58.3839745962156,0.523598775598296);
#34=CONICAL_SURFACE('',#307,54.5179491924311,1.0471975511966);
#35=CONICAL_SURFACE('',#313,50.9641016151378,0.523598775598297);
#36=CONICAL_SURFACE('',#322,53.5596801421197,0.174532925199435);
#37=FACE_OUTER_BOUND('',#55,.T.);
#38=FACE_OUTER_BOUND('',#56,.T.);
#39=FACE_OUTER_BOUND('',#57,.T.);
#40=FACE_OUTER_BOUND('',#58,.T.);
#41=FACE_OUTER_BOUND('',#60,.T.);
#42=FACE_OUTER_BOUND('',#61,.T.);
#43=FACE_OUTER_BOUND('',#62,.T.);
#44=FACE_OUTER_BOUND('',#64,.T.);
#45=FACE_OUTER_BOUND('',#65,.T.);
#46=FACE_OUTER_BOUND('',#67,.T.);
#47=FACE_OUTER_BOUND('',#68,.T.);
#48=FACE_OUTER_BOUND('',#70,.T.);
#49=FACE_OUTER_BOUND('',#71,.T.);
#50=FACE_OUTER_BOUND('',#72,.T.);
#51=FACE_OUTER_BOUND('',#73,.T.);
#52=FACE_OUTER_BOUND('',#74,.T.);
#53=FACE_OUTER_BOUND('',#75,.T.);
#54=FACE_OUTER_BOUND('',#76,.T.);
#55=EDGE_LOOP('',(#165,#166,#167,#168,#169));
#56=EDGE_LOOP('',(#170,#171,#172,#173,#174));
#57=EDGE_LOOP('',(#175,#176,#177,#178));
#58=EDGE_LOOP('',(#179));
#59=EDGE_LOOP('',(#180));
#60=EDGE_LOOP('',(#181,#182,#183,#184,#185));
#61=EDGE_LOOP('',(#186,#187,#188,#189,#190));
#62=EDGE_LOOP('',(#191));
#63=EDGE_LOOP('',(#192));
#64=EDGE_LOOP('',(#193,#194,#195,#196));
#65=EDGE_LOOP('',(#197));
#66=EDGE_LOOP('',(#198));
#67=EDGE_LOOP('',(#199,#200,#201,#202));
#68=EDGE_LOOP('',(#203));
#69=EDGE_LOOP('',(#204));
#70=EDGE_LOOP('',(#205,#206,#207,#208));
#71=EDGE_LOOP('',(#209,#210,#211,#212,#213));
#72=EDGE_LOOP('',(#214,#215,#216,#217,#218,#219));
#73=EDGE_LOOP('',(#220,#221,#222,#223,#224));
#74=EDGE_LOOP('',(#225,#226,#227,#228,#229));
#75=EDGE_LOOP('',(#230,#231,#232,#233,#234));
#76=EDGE_LOOP('',(#235));
#77=EDGE_LOOP('',(#236));
#78=CIRCLE('',#284,57.5179491924311);
#79=CIRCLE('',#285,57.5179491924311);
#80=CIRCLE('',#286,2.00000000000007);
#81=CIRCLE('',#287,55.7858983848622);
#82=CIRCLE('',#289,59.25);
#83=CIRCLE('',#291,59.25);
#84=CIRCLE('',#293,56.25);
#85=CIRCLE('',#295,56.25);
#86=CIRCLE('',#296,56.25);
#87=CIRCLE('',#298,1.99999999999997);
#88=CIRCLE('',#299,58.25);
#89=CIRCLE('',#301,58.75);
#90=CIRCLE('',#303,58.75);
#91=CIRCLE('',#304,2.99999999999999);
#92=CIRCLE('',#306,56.25);
#93=CIRCLE('',#308,52.7858983848622);
#94=CIRCLE('',#310,49.75);
#95=CIRCLE('',#312,49.75);
#96=CIRCLE('',#314,52.1782032302755);
#97=CIRCLE('',#315,52.1782032302755);
#98=CIRCLE('',#317,7.99999999999955);
#99=CIRCLE('',#318,53.25);
#100=CIRCLE('',#319,53.25);
#101=CIRCLE('',#321,53.25);
#102=CIRCLE('',#323,53.8693602842395);
#103=CIRCLE('',#324,53.8693602842395);
#104=CIRCLE('',#326,55.6420142396614);
#105=CIRCLE('',#327,1.79999999999995);
#106=VERTEX_POINT('',#437);
#107=VERTEX_POINT('',#438);
#108=VERTEX_POINT('',#441);
#109=VERTEX_POINT('',#445);
#110=VERTEX_POINT('',#449);
#111=VERTEX_POINT('',#453);
#112=VERTEX_POINT('',#456);
#113=VERTEX_POINT('',#457);
#114=VERTEX_POINT('',#462);
#115=VERTEX_POINT('',#466);
#116=VERTEX_POINT('',#469);
#117=VERTEX_POINT('',#473);
#118=VERTEX_POINT('',#476);
#119=VERTEX_POINT('',#480);
#120=VERTEX_POINT('',#483);
#121=VERTEX_POINT('',#487);
#122=VERTEX_POINT('',#489);
#123=VERTEX_POINT('',#493);
#124=VERTEX_POINT('',#495);
#125=VERTEX_POINT('',#499);
#126=VERTEX_POINT('',#503);
#127=VERTEX_POINT('',#505);
#128=VERTEX_POINT('',#509);
#129=EDGE_CURVE('',#106,#107,#78,.T.);
#130=EDGE_CURVE('',#107,#106,#79,.T.);
#131=EDGE_CURVE('',#107,#108,#80,.T.);
#132=EDGE_CURVE('',#108,#108,#81,.T.);
#133=EDGE_CURVE('',#109,#109,#82,.T.);
#134=EDGE_CURVE('',#109,#106,#265,.T.);
#135=EDGE_CURVE('',#110,#110,#83,.T.);
#136=EDGE_CURVE('',#110,#109,#266,.T.);
#137=EDGE_CURVE('',#111,#111,#84,.T.);
#138=EDGE_CURVE('',#112,#113,#85,.T.);
#139=EDGE_CURVE('',#112,#111,#267,.T.);
#140=EDGE_CURVE('',#113,#112,#86,.T.);
#141=EDGE_CURVE('',#113,#114,#87,.T.);
#142=EDGE_CURVE('',#114,#114,#88,.T.);
#143=EDGE_CURVE('',#115,#115,#89,.T.);
#144=EDGE_CURVE('',#116,#116,#90,.T.);
#145=EDGE_CURVE('',#116,#115,#91,.T.);
#146=EDGE_CURVE('',#117,#117,#92,.T.);
#147=EDGE_CURVE('',#117,#118,#268,.T.);
#148=EDGE_CURVE('',#118,#118,#93,.T.);
#149=EDGE_CURVE('',#119,#119,#94,.T.);
#150=EDGE_CURVE('',#119,#120,#269,.T.);
#151=EDGE_CURVE('',#120,#120,#95,.T.);
#152=EDGE_CURVE('',#120,#121,#270,.T.);
#153=EDGE_CURVE('',#122,#121,#96,.T.);
#154=EDGE_CURVE('',#121,#122,#97,.T.);
#155=EDGE_CURVE('',#122,#123,#98,.T.);
#156=EDGE_CURVE('',#124,#123,#99,.T.);
#157=EDGE_CURVE('',#123,#124,#100,.T.);
#158=EDGE_CURVE('',#124,#125,#271,.T.);
#159=EDGE_CURVE('',#125,#125,#101,.T.);
#160=EDGE_CURVE('',#125,#126,#272,.T.);
#161=EDGE_CURVE('',#127,#126,#102,.T.);
#162=EDGE_CURVE('',#126,#127,#103,.T.);
#163=EDGE_CURVE('',#128,#128,#104,.T.);
#164=EDGE_CURVE('',#128,#127,#105,.T.);
#165=ORIENTED_EDGE('',*,*,#129,.F.);
#166=ORIENTED_EDGE('',*,*,#130,.F.);
#167=ORIENTED_EDGE('',*,*,#131,.T.);
#168=ORIENTED_EDGE('',*,*,#132,.T.);
#169=ORIENTED_EDGE('',*,*,#131,.F.);
#170=ORIENTED_EDGE('',*,*,#133,.F.);
#171=ORIENTED_EDGE('',*,*,#134,.T.);
#172=ORIENTED_EDGE('',*,*,#129,.T.);
#173=ORIENTED_EDGE('',*,*,#130,.T.);
#174=ORIENTED_EDGE('',*,*,#134,.F.);
#175=ORIENTED_EDGE('',*,*,#135,.F.);
#176=ORIENTED_EDGE('',*,*,#136,.T.);
#177=ORIENTED_EDGE('',*,*,#133,.T.);
#178=ORIENTED_EDGE('',*,*,#136,.F.);
#179=ORIENTED_EDGE('',*,*,#135,.T.);
#180=ORIENTED_EDGE('',*,*,#137,.F.);
#181=ORIENTED_EDGE('',*,*,#138,.F.);
#182=ORIENTED_EDGE('',*,*,#139,.T.);
#183=ORIENTED_EDGE('',*,*,#137,.T.);
#184=ORIENTED_EDGE('',*,*,#139,.F.);
#185=ORIENTED_EDGE('',*,*,#140,.F.);
#186=ORIENTED_EDGE('',*,*,#138,.T.);
#187=ORIENTED_EDGE('',*,*,#141,.T.);
#188=ORIENTED_EDGE('',*,*,#142,.F.);
#189=ORIENTED_EDGE('',*,*,#141,.F.);
#190=ORIENTED_EDGE('',*,*,#140,.T.);
#191=ORIENTED_EDGE('',*,*,#143,.F.);
#192=ORIENTED_EDGE('',*,*,#142,.T.);
#193=ORIENTED_EDGE('',*,*,#144,.F.);
#194=ORIENTED_EDGE('',*,*,#145,.T.);
#195=ORIENTED_EDGE('',*,*,#143,.T.);
#196=ORIENTED_EDGE('',*,*,#145,.F.);
#197=ORIENTED_EDGE('',*,*,#144,.T.);
#198=ORIENTED_EDGE('',*,*,#146,.F.);
#199=ORIENTED_EDGE('',*,*,#146,.T.);
#200=ORIENTED_EDGE('',*,*,#147,.T.);
#201=ORIENTED_EDGE('',*,*,#148,.F.);
#202=ORIENTED_EDGE('',*,*,#147,.F.);
#203=ORIENTED_EDGE('',*,*,#148,.T.);
#204=ORIENTED_EDGE('',*,*,#149,.F.);
#205=ORIENTED_EDGE('',*,*,#149,.T.);
#206=ORIENTED_EDGE('',*,*,#150,.T.);
#207=ORIENTED_EDGE('',*,*,#151,.F.);
#208=ORIENTED_EDGE('',*,*,#150,.F.);
#209=ORIENTED_EDGE('',*,*,#151,.T.);
#210=ORIENTED_EDGE('',*,*,#152,.T.);
#211=ORIENTED_EDGE('',*,*,#153,.F.);
#212=ORIENTED_EDGE('',*,*,#154,.F.);
#213=ORIENTED_EDGE('',*,*,#152,.F.);
#214=ORIENTED_EDGE('',*,*,#154,.T.);
#215=ORIENTED_EDGE('',*,*,#155,.T.);
#216=ORIENTED_EDGE('',*,*,#156,.F.);
#217=ORIENTED_EDGE('',*,*,#157,.F.);
#218=ORIENTED_EDGE('',*,*,#155,.F.);
#219=ORIENTED_EDGE('',*,*,#153,.T.);
#220=ORIENTED_EDGE('',*,*,#156,.T.);
#221=ORIENTED_EDGE('',*,*,#157,.T.);
#222=ORIENTED_EDGE('',*,*,#158,.T.);
#223=ORIENTED_EDGE('',*,*,#159,.F.);
#224=ORIENTED_EDGE('',*,*,#158,.F.);
#225=ORIENTED_EDGE('',*,*,#159,.T.);
#226=ORIENTED_EDGE('',*,*,#160,.T.);
#227=ORIENTED_EDGE('',*,*,#161,.F.);
#228=ORIENTED_EDGE('',*,*,#162,.F.);
#229=ORIENTED_EDGE('',*,*,#160,.F.);
#230=ORIENTED_EDGE('',*,*,#163,.F.);
#231=ORIENTED_EDGE('',*,*,#164,.T.);
#232=ORIENTED_EDGE('',*,*,#161,.T.);
#233=ORIENTED_EDGE('',*,*,#162,.T.);
#234=ORIENTED_EDGE('',*,*,#164,.F.);
#235=ORIENTED_EDGE('',*,*,#132,.F.);
#236=ORIENTED_EDGE('',*,*,#163,.T.);
#237=TOROIDAL_SURFACE('',#283,55.7858983848622,2.00000000000007);
#238=TOROIDAL_SURFACE('',#297,58.25,1.99999999999997);
#239=TOROIDAL_SURFACE('',#302,58.75,2.99999999999999);
#240=TOROIDAL_SURFACE('',#316,45.2500000000005,7.99999999999955);
#241=TOROIDAL_SURFACE('',#325,55.6420142396614,1.79999999999995);
#242=ADVANCED_FACE('',(#37),#237,.T.);
#243=ADVANCED_FACE('',(#38),#33,.T.);
#244=ADVANCED_FACE('',(#39),#29,.T.);
#245=ADVANCED_FACE('',(#40,#19),#24,.T.);
#246=ADVANCED_FACE('',(#41),#30,.T.);
#247=ADVANCED_FACE('',(#42),#238,.F.);
#248=ADVANCED_FACE('',(#43,#20),#25,.T.);
#249=ADVANCED_FACE('',(#44),#239,.T.);
#250=ADVANCED_FACE('',(#45,#21),#26,.T.);
#251=ADVANCED_FACE('',(#46),#34,.F.);
#252=ADVANCED_FACE('',(#47,#22),#27,.T.);
#253=ADVANCED_FACE('',(#48),#31,.F.);
#254=ADVANCED_FACE('',(#49),#35,.F.);
#255=ADVANCED_FACE('',(#50),#240,.F.);
#256=ADVANCED_FACE('',(#51),#32,.F.);
#257=ADVANCED_FACE('',(#52),#36,.F.);
#258=ADVANCED_FACE('',(#53),#241,.T.);
#259=ADVANCED_FACE('',(#54,#23),#28,.T.);
#260=CLOSED_SHELL('',(#242,#243,#244,#245,#246,#247,#248,#249,#250,#251,
#252,#253,#254,#255,#256,#257,#258,#259));
#261=STYLED_ITEM('',(#532),#263);
#262=STYLED_ITEM('',(#533),#18);
#263=TRIMMED_CURVE('1B0',#264,(#434,PARAMETER_VALUE(0.)),(#435,
PARAMETER_VALUE(1.)),.T.,.PARAMETER.);
#264=LINE('',#433,#273);
#265=LINE('',#447,#274);
#266=LINE('',#451,#275);
#267=LINE('',#459,#276);
#268=LINE('',#477,#277);
#269=LINE('',#484,#278);
#270=LINE('',#488,#279);
#271=LINE('',#500,#280);
#272=LINE('',#504,#281);
#273=VECTOR('',#331,23.);
#274=VECTOR('',#346,58.3839745962156);
#275=VECTOR('',#351,59.25);
#276=VECTOR('',#360,56.25);
#277=VECTOR('',#385,54.5179491924311);
#278=VECTOR('',#394,49.75);
#279=VECTOR('',#399,50.9641016151378);
#280=VECTOR('',#414,53.25);
#281=VECTOR('',#419,53.5596801421197);
#282=AXIS2_PLACEMENT_3D('',#432,#329,#330);
#283=AXIS2_PLACEMENT_3D('',#436,#332,#333);
#284=AXIS2_PLACEMENT_3D('',#439,#334,#335);
#285=AXIS2_PLACEMENT_3D('',#440,#336,#337);
#286=AXIS2_PLACEMENT_3D('',#442,#338,#339);
#287=AXIS2_PLACEMENT_3D('',#443,#340,#341);
#288=AXIS2_PLACEMENT_3D('',#444,#342,#343);
#289=AXIS2_PLACEMENT_3D('',#446,#344,#345);
#290=AXIS2_PLACEMENT_3D('',#448,#347,#348);
#291=AXIS2_PLACEMENT_3D('',#450,#349,#350);
#292=AXIS2_PLACEMENT_3D('',#452,#352,#353);
#293=AXIS2_PLACEMENT_3D('',#454,#354,#355);
#294=AXIS2_PLACEMENT_3D('',#455,#356,#357);
#295=AXIS2_PLACEMENT_3D('',#458,#358,#359);
#296=AXIS2_PLACEMENT_3D('',#460,#361,#362);
#297=AXIS2_PLACEMENT_3D('',#461,#363,#364);
#298=AXIS2_PLACEMENT_3D('',#463,#365,#366);
#299=AXIS2_PLACEMENT_3D('',#464,#367,#368);
#300=AXIS2_PLACEMENT_3D('',#465,#369,#370);
#301=AXIS2_PLACEMENT_3D('',#467,#371,#372);
#302=AXIS2_PLACEMENT_3D('',#468,#373,#374);
#303=AXIS2_PLACEMENT_3D('',#470,#375,#376);
#304=AXIS2_PLACEMENT_3D('',#471,#377,#378);
#305=AXIS2_PLACEMENT_3D('',#472,#379,#380);
#306=AXIS2_PLACEMENT_3D('',#474,#381,#382);
#307=AXIS2_PLACEMENT_3D('',#475,#383,#384);
#308=AXIS2_PLACEMENT_3D('',#478,#386,#387);
#309=AXIS2_PLACEMENT_3D('',#479,#388,#389);
#310=AXIS2_PLACEMENT_3D('',#481,#390,#391);
#311=AXIS2_PLACEMENT_3D('',#482,#392,#393);
#312=AXIS2_PLACEMENT_3D('',#485,#395,#396);
#313=AXIS2_PLACEMENT_3D('',#486,#397,#398);
#314=AXIS2_PLACEMENT_3D('',#490,#400,#401);
#315=AXIS2_PLACEMENT_3D('',#491,#402,#403);
#316=AXIS2_PLACEMENT_3D('',#492,#404,#405);
#317=AXIS2_PLACEMENT_3D('',#494,#406,#407);
#318=AXIS2_PLACEMENT_3D('',#496,#408,#409);
#319=AXIS2_PLACEMENT_3D('',#497,#410,#411);
#320=AXIS2_PLACEMENT_3D('',#498,#412,#413);
#321=AXIS2_PLACEMENT_3D('',#501,#415,#416);
#322=AXIS2_PLACEMENT_3D('',#502,#417,#418);
#323=AXIS2_PLACEMENT_3D('',#506,#420,#421);
#324=AXIS2_PLACEMENT_3D('',#507,#422,#423);
#325=AXIS2_PLACEMENT_3D('',#508,#424,#425);
#326=AXIS2_PLACEMENT_3D('',#510,#426,#427);
#327=AXIS2_PLACEMENT_3D('',#511,#428,#429);
#328=AXIS2_PLACEMENT_3D('',#512,#430,#431);
#329=DIRECTION('axis',(0.,0.,1.));
#330=DIRECTION('refdir',(1.,0.,0.));
#331=DIRECTION('',(0.,0.,1.));
#332=DIRECTION('center_axis',(0.,-6.12323399573677E-17,-1.));
#333=DIRECTION('ref_axis',(0.,1.,-6.14806341702767E-17));
#334=DIRECTION('center_axis',(0.,-6.12323399573677E-17,-1.));
#335=DIRECTION('ref_axis',(1.,0.,0.));
#336=DIRECTION('center_axis',(0.,-6.12323399573677E-17,-1.));
#337=DIRECTION('ref_axis',(1.,0.,0.));
#338=DIRECTION('center_axis',(-1.,0.,0.));
#339=DIRECTION('ref_axis',(0.,-1.,6.12323399573677E-17));
#340=DIRECTION('center_axis',(0.,-6.12323399573677E-17,-1.));
#341=DIRECTION('ref_axis',(1.,0.,0.));
#342=DIRECTION('center_axis',(0.,-6.12323399573677E-17,-1.));
#343=DIRECTION('ref_axis',(1.,0.,0.));
#344=DIRECTION('center_axis',(0.,-6.12323399573677E-17,-1.));
#345=DIRECTION('ref_axis',(1.,0.,0.));
#346=DIRECTION('',(0.499999999999998,-8.20357802112199E-18,0.86602540378444));
#347=DIRECTION('center_axis',(0.,-6.12323399573677E-17,-1.));
#348=DIRECTION('ref_axis',(1.,0.,0.));
#349=DIRECTION('center_axis',(0.,-6.12323399573677E-17,-1.));
#350=DIRECTION('ref_axis',(1.,0.,0.));
#351=DIRECTION('',(0.,6.12323399573676E-17,1.));
#352=DIRECTION('center_axis',(0.,-6.12323399573677E-17,-1.));
#353=DIRECTION('ref_axis',(0.,1.,-6.12323399573677E-17));
#354=DIRECTION('center_axis',(0.,-6.12323399573677E-17,-1.));
#355=DIRECTION('ref_axis',(1.,0.,0.));
#356=DIRECTION('center_axis',(0.,-6.12323399573677E-17,-1.));
#357=DIRECTION('ref_axis',(1.,0.,0.));
#358=DIRECTION('center_axis',(0.,-6.12323399573677E-17,-1.));
#359=DIRECTION('ref_axis',(1.,0.,0.));
#360=DIRECTION('',(0.,6.12323399573677E-17,1.));
#361=DIRECTION('center_axis',(0.,-6.12323399573677E-17,-1.));
#362=DIRECTION('ref_axis',(1.,0.,0.));
#363=DIRECTION('center_axis',(0.,-6.12323399573677E-17,-1.));
#364=DIRECTION('ref_axis',(0.,1.,-5.89662021377677E-17));
#365=DIRECTION('center_axis',(-1.,0.,0.));
#366=DIRECTION('ref_axis',(0.,-1.,6.12323399573677E-17));
#367=DIRECTION('center_axis',(0.,-6.12323399573677E-17,-1.));
#368=DIRECTION('ref_axis',(1.,0.,0.));
#369=DIRECTION('center_axis',(0.,6.12323399573677E-17,1.));
#370=DIRECTION('ref_axis',(0.,-1.,6.12323399573677E-17));
#371=DIRECTION('center_axis',(0.,-6.12323399573677E-17,-1.));
#372=DIRECTION('ref_axis',(1.,0.,0.));
#373=DIRECTION('center_axis',(0.,-6.12323399573677E-17,-1.));
#374=DIRECTION('ref_axis',(0.,1.,-5.75338247579029E-17));
#375=DIRECTION('center_axis',(0.,-6.12323399573677E-17,-1.));
#376=DIRECTION('ref_axis',(1.,0.,0.));
#377=DIRECTION('center_axis',(-1.,0.,0.));
#378=DIRECTION('ref_axis',(0.,-1.,6.12323399573677E-17));
#379=DIRECTION('center_axis',(0.,-6.12323399573677E-17,-1.));
#380=DIRECTION('ref_axis',(0.,1.,-6.12323399573677E-17));
#381=DIRECTION('center_axis',(0.,-6.12323399573677E-17,-1.));
#382=DIRECTION('ref_axis',(1.,0.,0.));
#383=DIRECTION('center_axis',(0.,-6.12323399573677E-17,-1.));
#384=DIRECTION('ref_axis',(1.,0.,0.));
#385=DIRECTION('',(0.866025403784438,-7.54413538938067E-17,0.500000000000001));
#386=DIRECTION('center_axis',(0.,-6.12323399573677E-17,-1.));
#387=DIRECTION('ref_axis',(1.,0.,0.));
#388=DIRECTION('center_axis',(0.,-6.12323399573677E-17,-1.));
#389=DIRECTION('ref_axis',(0.,1.,-6.12323399573677E-17));
#390=DIRECTION('center_axis',(0.,-6.12323399573677E-17,-1.));
#391=DIRECTION('ref_axis',(1.,0.,0.));
#392=DIRECTION('center_axis',(0.,-6.12323399573677E-17,-1.));
#393=DIRECTION('ref_axis',(1.,0.,0.));
#394=DIRECTION('',(0.,6.12323399573677E-17,1.));
#395=DIRECTION('center_axis',(0.,-6.12323399573677E-17,-1.));
#396=DIRECTION('ref_axis',(1.,0.,0.));
#397=DIRECTION('center_axis',(0.,6.12323399573677E-17,1.));
#398=DIRECTION('ref_axis',(1.,0.,0.));
#399=DIRECTION('',(-0.499999999999998,1.14261101893613E-16,0.86602540378444));
#400=DIRECTION('center_axis',(0.,-6.12323399573677E-17,-1.));
#401=DIRECTION('ref_axis',(1.,0.,0.));
#402=DIRECTION('center_axis',(0.,-6.12323399573677E-17,-1.));
#403=DIRECTION('ref_axis',(1.,0.,0.));
#404=DIRECTION('center_axis',(0.,-6.12323399573677E-17,-1.));
#405=DIRECTION('ref_axis',(0.,1.,-6.67176277709014E-17));
#406=DIRECTION('center_axis',(-1.,0.,0.));
#407=DIRECTION('ref_axis',(0.,-1.,6.12323399573677E-17));
#408=DIRECTION('center_axis',(0.,-6.12323399573677E-17,-1.));
#409=DIRECTION('ref_axis',(1.,0.,0.));
#410=DIRECTION('center_axis',(0.,-6.12323399573677E-17,-1.));
#411=DIRECTION('ref_axis',(1.,0.,0.));
#412=DIRECTION('center_axis',(0.,-6.12323399573677E-17,-1.));
#413=DIRECTION('ref_axis',(1.,0.,0.));
#414=DIRECTION('',(0.,6.12323399573677E-17,1.));
#415=DIRECTION('center_axis',(0.,-6.12323399573677E-17,-1.));
#416=DIRECTION('ref_axis',(1.,0.,0.));
#417=DIRECTION('center_axis',(0.,6.12323399573677E-17,1.));
#418=DIRECTION('ref_axis',(1.,0.,0.));
#419=DIRECTION('',(-0.173648177666933,8.15678516208528E-17,0.984807753012208));
#420=DIRECTION('center_axis',(0.,-6.12323399573677E-17,-1.));
#421=DIRECTION('ref_axis',(1.,0.,0.));
#422=DIRECTION('center_axis',(0.,-6.12323399573677E-17,-1.));
#423=DIRECTION('ref_axis',(1.,0.,0.));
#424=DIRECTION('center_axis',(0.,-6.12323399573677E-17,-1.));
#425=DIRECTION('ref_axis',(0.,1.,-6.18486960428957E-17));
#426=DIRECTION('center_axis',(0.,-6.12323399573677E-17,-1.));
#427=DIRECTION('ref_axis',(1.,0.,0.));
#428=DIRECTION('center_axis',(-1.,0.,0.));
#429=DIRECTION('ref_axis',(0.,-1.,6.12323399573677E-17));
#430=DIRECTION('center_axis',(0.,6.12323399573677E-17,1.));
#431=DIRECTION('ref_axis',(0.,-1.,6.12323399573677E-17));
#432=CARTESIAN_POINT('',(0.,0.,0.));
#433=CARTESIAN_POINT('',(0.,0.,0.));
#434=CARTESIAN_POINT('',(0.,0.,0.));
#435=CARTESIAN_POINT('',(0.,0.,23.));
#436=CARTESIAN_POINT('Origin',(0.,2.91025543476934E-15,20.9999999999999));
#437=CARTESIAN_POINT('',(-57.5179491924311,1.00154050119298E-14,22.));
#438=CARTESIAN_POINT('',(0.,-57.5179491924311,22.));
#439=CARTESIAN_POINT('Origin',(0.,2.97148777472671E-15,22.));
#440=CARTESIAN_POINT('Origin',(0.,2.97148777472671E-15,22.));
#441=CARTESIAN_POINT('',(0.,-55.7858983848622,23.));
#442=CARTESIAN_POINT('Origin',(0.,-55.7858983848622,20.9999999999999));
#443=CARTESIAN_POINT('Origin',(0.,3.03272011468407E-15,23.));
#444=CARTESIAN_POINT('Origin',(0.,2.87963926479066E-15,20.5));
#445=CARTESIAN_POINT('',(-59.25,1.00438230398027E-14,19.));
#446=CARTESIAN_POINT('Origin',(0.,2.7877907548546E-15,19.));
#447=CARTESIAN_POINT('',(-58.3839745962156,1.00296140258662E-14,20.5));
#448=CARTESIAN_POINT('Origin',(0.,2.75717458487592E-15,18.5));
#449=CARTESIAN_POINT('',(-59.25,9.9825906998453E-15,18.));
#450=CARTESIAN_POINT('Origin',(0.,2.72655841489724E-15,18.));
#451=CARTESIAN_POINT('',(-59.25,1.0013206869824E-14,18.5));
#452=CARTESIAN_POINT('Origin',(56.25,2.72655841489724E-15,18.));
#453=CARTESIAN_POINT('',(-56.25,9.6151966601011E-15,18.));
#454=CARTESIAN_POINT('Origin',(0.,2.72655841489724E-15,18.));
#455=CARTESIAN_POINT('Origin',(0.,2.4203967151104E-15,13.));
#456=CARTESIAN_POINT('',(-56.25,9.00287326052742E-15,7.99999999999998));
#457=CARTESIAN_POINT('',(0.,-56.25,7.99999999999998));
#458=CARTESIAN_POINT('Origin',(0.,2.11423501532356E-15,7.99999999999998));
#459=CARTESIAN_POINT('',(-56.25,9.30903496031426E-15,13.));
#460=CARTESIAN_POINT('Origin',(0.,2.11423501532356E-15,7.99999999999998));
#461=CARTESIAN_POINT('Origin',(0.,2.11423501532356E-15,7.99999999999997));
#462=CARTESIAN_POINT('',(0.,-58.25,6.));
#463=CARTESIAN_POINT('Origin',(0.,-58.25,7.99999999999998));
#464=CARTESIAN_POINT('Origin',(0.,1.99177033540883E-15,6.));
#465=CARTESIAN_POINT('Origin',(58.75,1.99177033540882E-15,5.99999999999998));
#466=CARTESIAN_POINT('',(0.,-58.75,5.99999999999999));
#467=CARTESIAN_POINT('Origin',(0.,1.99177033540882E-15,5.99999999999998));
#468=CARTESIAN_POINT('Origin',(0.,1.80807331553672E-15,3.));
#469=CARTESIAN_POINT('',(0.,-58.75,1.4210854715202E-14));
#470=CARTESIAN_POINT('Origin',(0.,1.62437629566462E-15,1.06581410364015E-14));
#471=CARTESIAN_POINT('Origin',(0.,-58.75,3.));
#472=CARTESIAN_POINT('Origin',(56.25,1.62437629566462E-15,-1.77635683940025E-14));
#473=CARTESIAN_POINT('',(-56.25,8.51301454086848E-15,-1.77635683940025E-14));
#474=CARTESIAN_POINT('Origin',(0.,1.62437629566462E-15,-1.77635683940025E-14));
#475=CARTESIAN_POINT('Origin',(0.,1.68560863562199E-15,0.999999999999996));
#476=CARTESIAN_POINT('',(-52.7858983848622,8.21124912529325E-15,2.00000000000001));
#477=CARTESIAN_POINT('',(-54.5179491924311,8.36213183308087E-15,0.999999999999996));
#478=CARTESIAN_POINT('Origin',(0.,1.74684097557936E-15,2.00000000000001));
#479=CARTESIAN_POINT('Origin',(49.75,1.74684097557935E-15,1.99999999999998));
#480=CARTESIAN_POINT('',(-49.75,7.83945880133744E-15,1.99999999999998));
#481=CARTESIAN_POINT('Origin',(0.,1.74684097557935E-15,1.99999999999998));
#482=CARTESIAN_POINT('Origin',(0.,1.77745714555804E-15,2.5));
#483=CARTESIAN_POINT('',(-49.75,7.90069114129481E-15,3.00000000000001));
#484=CARTESIAN_POINT('',(-49.75,7.87007497131612E-15,2.5));
#485=CARTESIAN_POINT('Origin',(0.,1.80807331553672E-15,3.00000000000001));
#486=CARTESIAN_POINT('Origin',(0.,1.93683792656782E-15,5.10288568297002));
#487=CARTESIAN_POINT('',(-52.1782032302755,8.45558949472062E-15,7.20577136594002));
#488=CARTESIAN_POINT('',(-50.9641016151378,8.17814031800772E-15,5.10288568297002));
#489=CARTESIAN_POINT('',(0.,-52.1782032302755,7.20577136594002));
#490=CARTESIAN_POINT('Origin',(0.,2.06560253759892E-15,7.20577136594002));
#491=CARTESIAN_POINT('Origin',(0.,2.06560253759892E-15,7.20577136594002));
#492=CARTESIAN_POINT('Origin',(0.,2.31053189742839E-15,11.2057713659399));
#493=CARTESIAN_POINT('',(0.,-53.25,11.20577136594));
#494=CARTESIAN_POINT('Origin',(0.,-45.2500000000005,11.2057713659399));
#495=CARTESIAN_POINT('',(-53.25,8.83177610288805E-15,11.20577136594));
#496=CARTESIAN_POINT('Origin',(0.,2.31053189742839E-15,11.20577136594));
#497=CARTESIAN_POINT('Origin',(0.,2.31053189742839E-15,11.20577136594));
#498=CARTESIAN_POINT('Origin',(0.,2.51854515616282E-15,14.60288568297));
#499=CARTESIAN_POINT('',(-53.25,9.24780262035689E-15,18.));
#500=CARTESIAN_POINT('',(-53.25,9.03978936162247E-15,14.60288568297));
#501=CARTESIAN_POINT('Origin',(0.,2.72655841489724E-15,18.));
#502=CARTESIAN_POINT('Origin',(0.,2.83409975465212E-15,19.7562833599002));
#503=CARTESIAN_POINT('',(-53.8693602842395,9.53873505882794E-15,21.5125667198005));
#504=CARTESIAN_POINT('',(-53.5596801421197,9.39326883959241E-15,19.7562833599002));
#505=CARTESIAN_POINT('',(0.,-53.8693602842395,21.5125667198005));
#506=CARTESIAN_POINT('Origin',(0.,2.941641094407E-15,21.5125667198005));
#507=CARTESIAN_POINT('Origin',(0.,2.941641094407E-15,21.5125667198005));
#508=CARTESIAN_POINT('Origin',(0.,2.92250190276081E-15,21.2));
#509=CARTESIAN_POINT('',(0.,-55.6420142396614,23.));
#510=CARTESIAN_POINT('Origin',(0.,3.03272011468407E-15,23.));
#511=CARTESIAN_POINT('Origin',(0.,-55.6420142396614,21.2));
#512=CARTESIAN_POINT('Origin',(55.7858983848622,3.03272011468407E-15,23.));
#513=UNCERTAINTY_MEASURE_WITH_UNIT(LENGTH_MEASURE(0.001),#517,
'DISTANCE_ACCURACY_VALUE',
'Maximum model space distance between geometric entities at asserted c
onnectivities');
#514=UNCERTAINTY_MEASURE_WITH_UNIT(LENGTH_MEASURE(0.001),#517,
'DISTANCE_ACCURACY_VALUE',
'Maximum model space distance between geometric entities at asserted c
onnectivities');
#515=(
GEOMETRIC_REPRESENTATION_CONTEXT(3)
GLOBAL_UNCERTAINTY_ASSIGNED_CONTEXT((#513))
GLOBAL_UNIT_ASSIGNED_CONTEXT((#517,#518,#519))
REPRESENTATION_CONTEXT('','3D')
);
#516=(
GEOMETRIC_REPRESENTATION_CONTEXT(3)
GLOBAL_UNCERTAINTY_ASSIGNED_CONTEXT((#514))
GLOBAL_UNIT_ASSIGNED_CONTEXT((#517,#518,#519))
REPRESENTATION_CONTEXT('','3D')
);
#517=(
LENGTH_UNIT()
NAMED_UNIT(*)
SI_UNIT(.CENTI.,.METRE.)
);
#518=(
NAMED_UNIT(*)
PLANE_ANGLE_UNIT()
SI_UNIT($,.RADIAN.)
);
#519=(
NAMED_UNIT(*)
SI_UNIT($,.STERADIAN.)
SOLID_ANGLE_UNIT()
);
#520=SHAPE_DEFINITION_REPRESENTATION(#521,#522);
#521=PRODUCT_DEFINITION_SHAPE('',$,#524);
#522=SHAPE_REPRESENTATION('',(#282),#515);
#523=PRODUCT_DEFINITION_CONTEXT('part definition',#528,'design');
#524=PRODUCT_DEFINITION('Product','Product',#525,#523);
#525=PRODUCT_DEFINITION_FORMATION('',$,#530);
#526=PRODUCT_RELATED_PRODUCT_CATEGORY('Product','Product',(#530));
#527=APPLICATION_PROTOCOL_DEFINITION('international standard',
'automotive_design',2009,#528);
#528=APPLICATION_CONTEXT(
'Core Data for Automotive Mechanical Design Process');
#529=PRODUCT_CONTEXT('part definition',#528,'mechanical');
#530=PRODUCT('Product','Product',$,(#529));
#531=PRESENTATION_STYLE_ASSIGNMENT((#534));
#532=PRESENTATION_STYLE_ASSIGNMENT((#535));
#533=PRESENTATION_STYLE_ASSIGNMENT((#536));
#534=SURFACE_STYLE_USAGE(.BOTH.,#537);
#535=SURFACE_STYLE_USAGE(.BOTH.,#538);
#536=SURFACE_STYLE_USAGE(.BOTH.,#539);
#537=SURFACE_SIDE_STYLE('',(#540));
#538=SURFACE_SIDE_STYLE('',(#541));
#539=SURFACE_SIDE_STYLE('',(#542));
#540=SURFACE_STYLE_FILL_AREA(#543);
#541=SURFACE_STYLE_FILL_AREA(#544);
#542=SURFACE_STYLE_FILL_AREA(#545);
#543=FILL_AREA_STYLE('',(#546));
#544=FILL_AREA_STYLE('',(#547));
#545=FILL_AREA_STYLE('',(#548));
#546=FILL_AREA_STYLE_COLOUR('',#549);
#547=FILL_AREA_STYLE_COLOUR('',#550);
#548=FILL_AREA_STYLE_COLOUR('',#551);
#549=COLOUR_RGB('',1.,1.,1.);
#550=COLOUR_RGB('',1.,0.,1.);
#551=COLOUR_RGB('',0.329411764705882,0.329411764705882,0.329411764705882);
ENDSEC;
END-ISO-10303-21;
