ISO-10303-21;
HEADER;
/* Generated by software containing ST-Developer
 * from STEP Tools, Inc. (www.steptools.com) 
 */

FILE_DESCRIPTION(
/* description */ (''),
/* implementation_level */ '2;1');

FILE_NAME(
/* name */ '00924.100X_3D.stp',
/* time_stamp */ '2024-12-11T13:01:39+01:00',
/* author */ ('CAD'),
/* organization */ (''),
/* preprocessor_version */ 'ST-DEVELOPER v20',
/* originating_system */ 'AutoCAD Mechanical',
/* authorisation */ '');

FILE_SCHEMA (('AUTOMOTIVE_DESIGN { 1 0 10303 214 3 1 1 }'));
ENDSEC;

DATA;
#10=MECHANICAL_DESIGN_GEOMETRIC_PRESENTATION_REPRESENTATION('',(#14),#306);
#11=PRESENTATION_LAYER_ASSIGNMENT('4','KUNSTSTOFF',(#15));
#12=SHAPE_REPRESENTATION_RELATIONSHIP('SRR','None',#312,#13);
#13=ADVANCED_BREP_SHAPE_REPRESENTATION('',(#15),#305);
#14=STYLED_ITEM('',(#321),#15);
#15=MANIFOLD_SOLID_BREP('146D',#152);
#16=SPHERICAL_SURFACE('',#178,398.00000000062);
#17=CONICAL_SURFACE('',#172,48.3983142024988,0.0174532925199445);
#18=FACE_BOUND('',#47,.T.);
#19=FACE_BOUND('',#51,.T.);
#20=PLANE('',#162);
#21=PLANE('',#170);
#22=LINE('',#275,#25);
#23=LINE('',#284,#26);
#24=LINE('',#294,#27);
#25=VECTOR('',#197,57.5000000000001);
#26=VECTOR('',#208,51.);
#27=VECTOR('',#221,48.3983142024988);
#28=CYLINDRICAL_SURFACE('',#160,57.5000000000001);
#29=CYLINDRICAL_SURFACE('',#164,51.);
#30=TOROIDAL_SURFACE('',#156,55.7373574534056,1.76264254659452);
#31=TOROIDAL_SURFACE('',#167,49.5000000000001,1.50000000000006);
#32=TOROIDAL_SURFACE('',#175,45.2970091671067,2.49999999999995);
#33=FACE_OUTER_BOUND('',#43,.T.);
#34=FACE_OUTER_BOUND('',#44,.T.);
#35=FACE_OUTER_BOUND('',#45,.T.);
#36=FACE_OUTER_BOUND('',#46,.T.);
#37=FACE_OUTER_BOUND('',#48,.T.);
#38=FACE_OUTER_BOUND('',#49,.T.);
#39=FACE_OUTER_BOUND('',#50,.T.);
#40=FACE_OUTER_BOUND('',#52,.T.);
#41=FACE_OUTER_BOUND('',#53,.T.);
#42=FACE_OUTER_BOUND('',#54,.T.);
#43=EDGE_LOOP('',(#103,#104,#105));
#44=EDGE_LOOP('',(#106,#107,#108,#109,#110));
#45=EDGE_LOOP('',(#111,#112,#113,#114,#115));
#46=EDGE_LOOP('',(#116));
#47=EDGE_LOOP('',(#117));
#48=EDGE_LOOP('',(#118,#119,#120,#121,#122));
#49=EDGE_LOOP('',(#123,#124,#125,#126,#127));
#50=EDGE_LOOP('',(#128));
#51=EDGE_LOOP('',(#129));
#52=EDGE_LOOP('',(#130,#131,#132,#133,#134));
#53=EDGE_LOOP('',(#135,#136,#137,#138,#139));
#54=EDGE_LOOP('',(#140));
#55=CIRCLE('',#154,55.9517830236063);
#56=CIRCLE('',#155,541.834830075795);
#57=CIRCLE('',#157,57.5000000000001);
#58=CIRCLE('',#158,1.76264254659452);
#59=CIRCLE('',#159,57.5000000000001);
#60=CIRCLE('',#161,57.5000000000001);
#61=CIRCLE('',#163,51.);
#62=CIRCLE('',#165,51.0000000000001);
#63=CIRCLE('',#166,51.0000000000001);
#64=CIRCLE('',#168,49.5000000000002);
#65=CIRCLE('',#169,1.50000000000006);
#66=CIRCLE('',#171,49.0000000000002);
#67=CIRCLE('',#173,47.7966284049976);
#68=CIRCLE('',#174,47.7966284049976);
#69=CIRCLE('',#176,2.49999999999995);
#70=CIRCLE('',#177,45.5833366586811);
#71=VERTEX_POINT('',#262);
#72=VERTEX_POINT('',#264);
#73=VERTEX_POINT('',#267);
#74=VERTEX_POINT('',#268);
#75=VERTEX_POINT('',#273);
#76=VERTEX_POINT('',#277);
#77=VERTEX_POINT('',#280);
#78=VERTEX_POINT('',#281);
#79=VERTEX_POINT('',#286);
#80=VERTEX_POINT('',#290);
#81=VERTEX_POINT('',#293);
#82=VERTEX_POINT('',#295);
#83=VERTEX_POINT('',#299);
#84=EDGE_CURVE('',#71,#71,#55,.T.);
#85=EDGE_CURVE('',#71,#72,#56,.T.);
#86=EDGE_CURVE('',#73,#74,#57,.T.);
#87=EDGE_CURVE('',#73,#71,#58,.T.);
#88=EDGE_CURVE('',#74,#73,#59,.T.);
#89=EDGE_CURVE('',#75,#75,#60,.T.);
#90=EDGE_CURVE('',#75,#74,#22,.T.);
#91=EDGE_CURVE('',#76,#76,#61,.T.);
#92=EDGE_CURVE('',#77,#78,#62,.T.);
#93=EDGE_CURVE('',#78,#77,#63,.T.);
#94=EDGE_CURVE('',#78,#76,#23,.T.);
#95=EDGE_CURVE('',#79,#79,#64,.T.);
#96=EDGE_CURVE('',#79,#77,#65,.T.);
#97=EDGE_CURVE('',#80,#80,#66,.T.);
#98=EDGE_CURVE('',#80,#81,#24,.T.);
#99=EDGE_CURVE('',#82,#81,#67,.T.);
#100=EDGE_CURVE('',#81,#82,#68,.T.);
#101=EDGE_CURVE('',#82,#83,#69,.T.);
#102=EDGE_CURVE('',#83,#83,#70,.T.);
#103=ORIENTED_EDGE('',*,*,#84,.F.);
#104=ORIENTED_EDGE('',*,*,#85,.T.);
#105=ORIENTED_EDGE('',*,*,#85,.F.);
#106=ORIENTED_EDGE('',*,*,#86,.F.);
#107=ORIENTED_EDGE('',*,*,#87,.T.);
#108=ORIENTED_EDGE('',*,*,#84,.T.);
#109=ORIENTED_EDGE('',*,*,#87,.F.);
#110=ORIENTED_EDGE('',*,*,#88,.F.);
#111=ORIENTED_EDGE('',*,*,#89,.F.);
#112=ORIENTED_EDGE('',*,*,#90,.T.);
#113=ORIENTED_EDGE('',*,*,#88,.T.);
#114=ORIENTED_EDGE('',*,*,#86,.T.);
#115=ORIENTED_EDGE('',*,*,#90,.F.);
#116=ORIENTED_EDGE('',*,*,#89,.T.);
#117=ORIENTED_EDGE('',*,*,#91,.F.);
#118=ORIENTED_EDGE('',*,*,#92,.F.);
#119=ORIENTED_EDGE('',*,*,#93,.F.);
#120=ORIENTED_EDGE('',*,*,#94,.T.);
#121=ORIENTED_EDGE('',*,*,#91,.T.);
#122=ORIENTED_EDGE('',*,*,#94,.F.);
#123=ORIENTED_EDGE('',*,*,#95,.F.);
#124=ORIENTED_EDGE('',*,*,#96,.T.);
#125=ORIENTED_EDGE('',*,*,#92,.T.);
#126=ORIENTED_EDGE('',*,*,#93,.T.);
#127=ORIENTED_EDGE('',*,*,#96,.F.);
#128=ORIENTED_EDGE('',*,*,#95,.T.);
#129=ORIENTED_EDGE('',*,*,#97,.F.);
#130=ORIENTED_EDGE('',*,*,#97,.T.);
#131=ORIENTED_EDGE('',*,*,#98,.T.);
#132=ORIENTED_EDGE('',*,*,#99,.F.);
#133=ORIENTED_EDGE('',*,*,#100,.F.);
#134=ORIENTED_EDGE('',*,*,#98,.F.);
#135=ORIENTED_EDGE('',*,*,#99,.T.);
#136=ORIENTED_EDGE('',*,*,#100,.T.);
#137=ORIENTED_EDGE('',*,*,#101,.T.);
#138=ORIENTED_EDGE('',*,*,#102,.F.);
#139=ORIENTED_EDGE('',*,*,#101,.F.);
#140=ORIENTED_EDGE('',*,*,#102,.T.);
#141=(
BOUNDED_SURFACE()
B_SPLINE_SURFACE(2,2,((#235,#236,#237,#238,#239,#240,#241,#242,#243),(#244,
#245,#246,#247,#248,#249,#250,#251,#252),(#253,#254,#255,#256,#257,#258,
#259,#260,#261)),.UNSPECIFIED.,.F.,.T.,.F.)
B_SPLINE_SURFACE_WITH_KNOTS((3,3),(3,2,2,2,3),(-1.55240877212515,-1.44884420711816),
(-3.14159265358979,-1.5707963267949,0.,1.5707963267949,3.14159265358979),
 .UNSPECIFIED.)
GEOMETRIC_REPRESENTATION_ITEM()
RATIONAL_B_SPLINE_SURFACE(((1.,0.707106781186548,1.,0.707106781186548,1.,
0.707106781186548,1.,0.707106781186548,1.),(0.998659597163161,0.706158973251097,
0.998659597163161,0.706158973251097,0.998659597163161,0.706158973251097,
0.998659597163161,0.706158973251097,0.998659597163161),(1.,0.707106781186548,
1.,0.707106781186548,1.,0.707106781186548,1.,0.707106781186548,1.)))
REPRESENTATION_ITEM('')
SURFACE()
);
#142=ADVANCED_FACE('',(#33),#141,.F.);
#143=ADVANCED_FACE('',(#34),#30,.T.);
#144=ADVANCED_FACE('',(#35),#28,.T.);
#145=ADVANCED_FACE('',(#36,#18),#20,.T.);
#146=ADVANCED_FACE('',(#37),#29,.T.);
#147=ADVANCED_FACE('',(#38),#31,.T.);
#148=ADVANCED_FACE('',(#39,#19),#21,.T.);
#149=ADVANCED_FACE('',(#40),#17,.F.);
#150=ADVANCED_FACE('',(#41),#32,.F.);
#151=ADVANCED_FACE('',(#42),#16,.F.);
#152=CLOSED_SHELL('',(#142,#143,#144,#145,#146,#147,#148,#149,#150,#151));
#153=AXIS2_PLACEMENT_3D('',#234,#179,#180);
#154=AXIS2_PLACEMENT_3D('',#263,#181,#182);
#155=AXIS2_PLACEMENT_3D('',#265,#183,#184);
#156=AXIS2_PLACEMENT_3D('',#266,#185,#186);
#157=AXIS2_PLACEMENT_3D('',#269,#187,#188);
#158=AXIS2_PLACEMENT_3D('',#270,#189,#190);
#159=AXIS2_PLACEMENT_3D('',#271,#191,#192);
#160=AXIS2_PLACEMENT_3D('',#272,#193,#194);
#161=AXIS2_PLACEMENT_3D('',#274,#195,#196);
#162=AXIS2_PLACEMENT_3D('',#276,#198,#199);
#163=AXIS2_PLACEMENT_3D('',#278,#200,#201);
#164=AXIS2_PLACEMENT_3D('',#279,#202,#203);
#165=AXIS2_PLACEMENT_3D('',#282,#204,#205);
#166=AXIS2_PLACEMENT_3D('',#283,#206,#207);
#167=AXIS2_PLACEMENT_3D('',#285,#209,#210);
#168=AXIS2_PLACEMENT_3D('',#287,#211,#212);
#169=AXIS2_PLACEMENT_3D('',#288,#213,#214);
#170=AXIS2_PLACEMENT_3D('',#289,#215,#216);
#171=AXIS2_PLACEMENT_3D('',#291,#217,#218);
#172=AXIS2_PLACEMENT_3D('',#292,#219,#220);
#173=AXIS2_PLACEMENT_3D('',#296,#222,#223);
#174=AXIS2_PLACEMENT_3D('',#297,#224,#225);
#175=AXIS2_PLACEMENT_3D('',#298,#226,#227);
#176=AXIS2_PLACEMENT_3D('',#300,#228,#229);
#177=AXIS2_PLACEMENT_3D('',#301,#230,#231);
#178=AXIS2_PLACEMENT_3D('',#302,#232,#233);
#179=DIRECTION('axis',(0.,0.,1.));
#180=DIRECTION('refdir',(1.,0.,0.));
#181=DIRECTION('center_axis',(1.32193997350716E-15,-6.12323399573677E-17,
-1.));
#182=DIRECTION('ref_axis',(1.,8.09454778610242E-32,1.32193997350716E-15));
#183=DIRECTION('center_axis',(-1.,2.13748341321906E-16,-1.32193997350716E-15));
#184=DIRECTION('ref_axis',(-2.13748341321906E-16,-1.,6.12323399573677E-17));
#185=DIRECTION('center_axis',(1.32193997350716E-15,-6.12323399573677E-17,
-1.));
#186=DIRECTION('ref_axis',(0.,1.,0.));
#187=DIRECTION('center_axis',(1.32193997350716E-15,-6.12323399573677E-17,
-1.));
#188=DIRECTION('ref_axis',(1.,8.09454778610242E-32,1.32193997350716E-15));
#189=DIRECTION('center_axis',(-1.,-8.09454778610242E-32,-1.32193997350716E-15));
#190=DIRECTION('ref_axis',(0.,-1.,6.12323399573677E-17));
#191=DIRECTION('center_axis',(1.32193997350716E-15,-6.12323399573677E-17,
-1.));
#192=DIRECTION('ref_axis',(1.,8.09454778610242E-32,1.32193997350716E-15));
#193=DIRECTION('center_axis',(1.32193997350716E-15,-6.12323399573677E-17,
-1.));
#194=DIRECTION('ref_axis',(-1.,-8.77441095719755E-32,-1.43297005525293E-15));
#195=DIRECTION('center_axis',(1.32193997350716E-15,-6.12323399573677E-17,
-1.));
#196=DIRECTION('ref_axis',(1.,8.09454778610242E-32,1.32193997350716E-15));
#197=DIRECTION('',(-1.32193997350716E-15,6.12323399573677E-17,1.));
#198=DIRECTION('center_axis',(1.32193997350716E-15,-6.12323399573677E-17,
-1.));
#199=DIRECTION('ref_axis',(0.,1.,-6.12323399573677E-17));
#200=DIRECTION('center_axis',(1.32193997350716E-15,-6.12323399573677E-17,
-1.));
#201=DIRECTION('ref_axis',(1.,8.09454778610242E-32,1.32193997350716E-15));
#202=DIRECTION('center_axis',(1.32193997350716E-15,-6.12323399573677E-17,
-1.));
#203=DIRECTION('ref_axis',(-1.,-8.77441095719755E-32,-1.43297005525293E-15));
#204=DIRECTION('center_axis',(1.32193997350716E-15,-6.12323399573677E-17,
-1.));
#205=DIRECTION('ref_axis',(1.,8.09454778610242E-32,1.32193997350716E-15));
#206=DIRECTION('center_axis',(1.32193997350716E-15,-6.12323399573677E-17,
-1.));
#207=DIRECTION('ref_axis',(1.,8.09454778610242E-32,1.32193997350716E-15));
#208=DIRECTION('',(-1.32193997350716E-15,6.12323399573677E-17,1.));
#209=DIRECTION('center_axis',(1.32193997350716E-15,-6.12323399573677E-17,
-1.));
#210=DIRECTION('ref_axis',(0.,1.,-6.09534209598123E-17));
#211=DIRECTION('center_axis',(1.32193997350716E-15,-6.12323399573677E-17,
-1.));
#212=DIRECTION('ref_axis',(1.,8.09454778610242E-32,1.32193997350716E-15));
#213=DIRECTION('center_axis',(-1.,-8.09454778610242E-32,-1.32193997350716E-15));
#214=DIRECTION('ref_axis',(0.,-1.,6.12323399573677E-17));
#215=DIRECTION('center_axis',(1.32193997350716E-15,-6.12323399573677E-17,
-1.));
#216=DIRECTION('ref_axis',(0.,1.,-6.12323399573677E-17));
#217=DIRECTION('center_axis',(1.32193997350716E-15,-6.12323399573677E-17,
-1.));
#218=DIRECTION('ref_axis',(1.,8.09454778610242E-32,1.32193997350716E-15));
#219=DIRECTION('center_axis',(1.32193997350716E-15,-6.12323399573677E-17,
-1.));
#220=DIRECTION('ref_axis',(-1.,-8.77441095719755E-32,-1.43297005525293E-15));
#221=DIRECTION('',(-0.017452406437286,6.33603173434906E-17,0.999847695156391));
#222=DIRECTION('center_axis',(1.32193997350716E-15,-6.12323399573677E-17,
-1.));
#223=DIRECTION('ref_axis',(1.,8.09454778610242E-32,1.32193997350716E-15));
#224=DIRECTION('center_axis',(1.32193997350716E-15,-6.12323399573677E-17,
-1.));
#225=DIRECTION('ref_axis',(1.,8.09454778610242E-32,1.32193997350716E-15));
#226=DIRECTION('center_axis',(1.32193997350716E-15,-6.12323399573677E-17,
-1.));
#227=DIRECTION('ref_axis',(0.,1.,0.));
#228=DIRECTION('center_axis',(-1.,-8.09454778610242E-32,-1.32193997350716E-15));
#229=DIRECTION('ref_axis',(0.,-1.,6.12323399573677E-17));
#230=DIRECTION('center_axis',(1.32193997350716E-15,-6.12323399573677E-17,
-1.));
#231=DIRECTION('ref_axis',(1.,8.09454778610242E-32,1.32193997350716E-15));
#232=DIRECTION('center_axis',(6.12323399573715E-17,-1.,0.));
#233=DIRECTION('ref_axis',(1.,0.,0.));
#234=CARTESIAN_POINT('',(0.,0.,0.));
#235=CARTESIAN_POINT('Ctrl Pts',(-1.13686837721616E-13,-3.43828024967777E-14,
75.9999999999998));
#236=CARTESIAN_POINT('Ctrl Pts',(-1.13686837721616E-13,-3.43828024967777E-14,
75.9999999999998));
#237=CARTESIAN_POINT('Ctrl Pts',(-1.13686837721616E-13,1.71315458458295E-14,
75.9999999999998));
#238=CARTESIAN_POINT('Ctrl Pts',(-1.13686837721616E-13,6.86458941884368E-14,
75.9999999999998));
#239=CARTESIAN_POINT('Ctrl Pts',(-1.13686837721616E-13,6.86458941884368E-14,
75.9999999999998));
#240=CARTESIAN_POINT('Ctrl Pts',(-1.13686837721616E-13,6.86458941884368E-14,
75.9999999999998));
#241=CARTESIAN_POINT('Ctrl Pts',(-1.13686837721616E-13,1.71315458458295E-14,
75.9999999999998));
#242=CARTESIAN_POINT('Ctrl Pts',(-1.13686837721616E-13,-3.43828024967777E-14,
75.9999999999998));
#243=CARTESIAN_POINT('Ctrl Pts',(-1.13686837721616E-13,-3.43828024967777E-14,
75.9999999999998));
#244=CARTESIAN_POINT('Ctrl Pts',(-1.13686837721616E-13,-28.0778017047328,
75.4836596929104));
#245=CARTESIAN_POINT('Ctrl Pts',(-28.0778017047329,-28.0778017047328,75.4836596929104));
#246=CARTESIAN_POINT('Ctrl Pts',(-28.0778017047329,1.70999291206121E-14,
75.4836596929104));
#247=CARTESIAN_POINT('Ctrl Pts',(-28.0778017047329,28.0778017047328,75.4836596929104));
#248=CARTESIAN_POINT('Ctrl Pts',(-1.13686837721616E-13,28.0778017047328,
75.4836596929104));
#249=CARTESIAN_POINT('Ctrl Pts',(28.0778017047327,28.0778017047328,75.4836596929105));
#250=CARTESIAN_POINT('Ctrl Pts',(28.0778017047327,1.70999291206121E-14,
75.4836596929105));
#251=CARTESIAN_POINT('Ctrl Pts',(28.0778017047327,-28.0778017047328,75.4836596929105));
#252=CARTESIAN_POINT('Ctrl Pts',(-1.13686837721616E-13,-28.0778017047328,
75.4836596929104));
#253=CARTESIAN_POINT('Ctrl Pts',(-1.13686837721616E-13,-55.9517830236063,
72.0674159489509));
#254=CARTESIAN_POINT('Ctrl Pts',(-55.9517830236064,-55.9517830236063,72.0674159489508));
#255=CARTESIAN_POINT('Ctrl Pts',(-55.9517830236064,1.68907445223048E-14,
72.0674159489508));
#256=CARTESIAN_POINT('Ctrl Pts',(-55.9517830236064,55.9517830236063,72.0674159489508));
#257=CARTESIAN_POINT('Ctrl Pts',(-1.13686837721616E-13,55.9517830236063,
72.0674159489509));
#258=CARTESIAN_POINT('Ctrl Pts',(55.9517830236061,55.9517830236063,72.067415948951));
#259=CARTESIAN_POINT('Ctrl Pts',(55.9517830236061,1.68907445223048E-14,
72.067415948951));
#260=CARTESIAN_POINT('Ctrl Pts',(55.9517830236061,-55.9517830236063,72.067415948951));
#261=CARTESIAN_POINT('Ctrl Pts',(-1.13686837721616E-13,-55.9517830236063,
72.0674159489509));
#262=CARTESIAN_POINT('',(-1.13686837721616E-13,-55.9517830236062,72.067415948951));
#263=CARTESIAN_POINT('Origin',(-1.13686837721616E-13,1.68907445223048E-14,
72.0674159489511));
#264=CARTESIAN_POINT('',(-2.27373675443232E-13,1.71315458458295E-14,76.0000000000001));
#265=CARTESIAN_POINT('Origin',(5.6843418860808E-13,9.96245614984691,-465.74323489152));
#266=CARTESIAN_POINT('Origin',(-1.13686837721616E-13,1.67836153905956E-14,
70.3178644573084));
#267=CARTESIAN_POINT('',(-1.13686837721616E-13,-57.5000000000001,70.3178644573085));
#268=CARTESIAN_POINT('',(57.5,9.74189629549831E-15,70.3178644573085));
#269=CARTESIAN_POINT('Origin',(-1.13686837721616E-13,1.67836153905956E-14,
70.3178644573085));
#270=CARTESIAN_POINT('Origin',(-1.13686837721616E-13,-55.7373574534056,
70.3178644573084));
#271=CARTESIAN_POINT('Origin',(-1.13686837721616E-13,1.67836153905956E-14,
70.3178644573085));
#272=CARTESIAN_POINT('Origin',(-1.13686837721616E-13,1.67738835983405E-14,
70.1589322286542));
#273=CARTESIAN_POINT('',(57.5,9.72243271098804E-15,70.0000000000001));
#274=CARTESIAN_POINT('Origin',(-1.13686837721616E-13,1.67641518060853E-14,
70.));
#275=CARTESIAN_POINT('',(57.5,9.73216450324317E-15,70.1589322286543));
#276=CARTESIAN_POINT('Origin',(-51.0000000000001,1.67641518060853E-14,70.0000000000001));
#277=CARTESIAN_POINT('',(50.9999999999999,1.05184531304338E-14,70.0000000000002));
#278=CARTESIAN_POINT('Origin',(-1.13686837721616E-13,1.67641518060853E-14,
70.0000000000001));
#279=CARTESIAN_POINT('Origin',(-1.13686837721616E-13,1.46669441625455E-14,
35.7500000000001));
#280=CARTESIAN_POINT('',(0.,-51.0000000000001,1.50000000000006));
#281=CARTESIAN_POINT('',(50.9999999999999,6.32403784335415E-15,1.50000000000014));
#282=CARTESIAN_POINT('Origin',(0.,1.25697365190056E-14,1.50000000000006));
#283=CARTESIAN_POINT('Origin',(0.,1.25697365190056E-14,1.50000000000006));
#284=CARTESIAN_POINT('',(50.9999999999999,8.42124548689399E-15,35.7500000000002));
#285=CARTESIAN_POINT('Origin',(0.,1.25697365190057E-14,1.50000000000011));
#286=CARTESIAN_POINT('',(0.,-49.5000000000002,5.6843418860808E-14));
#287=CARTESIAN_POINT('Origin',(0.,1.24778880090696E-14,5.6843418860808E-14));
#288=CARTESIAN_POINT('Origin',(0.,-49.5000000000001,1.50000000000011));
#289=CARTESIAN_POINT('Origin',(-49.0000000000002,1.24778880090696E-14,-5.6843418860808E-14));
#290=CARTESIAN_POINT('',(49.,6.47711869324755E-15,5.6843418860808E-14));
#291=CARTESIAN_POINT('Origin',(0.,1.24778880090696E-14,0.));
#292=CARTESIAN_POINT('Origin',(-1.13686837721616E-13,1.45886008280496E-14,
34.4705562526204));
#293=CARTESIAN_POINT('',(47.7966284049974,1.08459148484081E-14,68.9411125052409));
#294=CARTESIAN_POINT('',(48.3983142024987,8.66151677082781E-15,34.4705562526205));
#295=CARTESIAN_POINT('',(-1.13686837721616E-13,-47.7966284049976,68.9411125052409));
#296=CARTESIAN_POINT('Origin',(-1.13686837721616E-13,1.66993136470296E-14,
68.9411125052409));
#297=CARTESIAN_POINT('Origin',(-1.13686837721616E-13,1.66993136470296E-14,
68.9411125052409));
#298=CARTESIAN_POINT('Origin',(-1.13686837721616E-13,1.66966420178195E-14,
68.8974814891477));
#299=CARTESIAN_POINT('',(-1.13686837721616E-13,-45.5833366586811,71.381030676816));
#300=CARTESIAN_POINT('Origin',(-1.13686837721616E-13,-45.2970091671067,
68.8974814891477));
#301=CARTESIAN_POINT('Origin',(-1.13686837721616E-13,1.68487155459797E-14,
71.381030676816));
#302=CARTESIAN_POINT('Origin',(3.49018591805361E-11,-7.36139013715339E-15,
-324.000000000586));
#303=UNCERTAINTY_MEASURE_WITH_UNIT(LENGTH_MEASURE(0.001),#307,
'DISTANCE_ACCURACY_VALUE',
'Maximum model space distance between geometric entities at asserted c
onnectivities');
#304=UNCERTAINTY_MEASURE_WITH_UNIT(LENGTH_MEASURE(0.001),#307,
'DISTANCE_ACCURACY_VALUE',
'Maximum model space distance between geometric entities at asserted c
onnectivities');
#305=(
GEOMETRIC_REPRESENTATION_CONTEXT(3)
GLOBAL_UNCERTAINTY_ASSIGNED_CONTEXT((#303))
GLOBAL_UNIT_ASSIGNED_CONTEXT((#307,#308,#309))
REPRESENTATION_CONTEXT('','3D')
);
#306=(
GEOMETRIC_REPRESENTATION_CONTEXT(3)
GLOBAL_UNCERTAINTY_ASSIGNED_CONTEXT((#304))
GLOBAL_UNIT_ASSIGNED_CONTEXT((#307,#308,#309))
REPRESENTATION_CONTEXT('','3D')
);
#307=(
LENGTH_UNIT()
NAMED_UNIT(*)
SI_UNIT(.CENTI.,.METRE.)
);
#308=(
NAMED_UNIT(*)
PLANE_ANGLE_UNIT()
SI_UNIT($,.RADIAN.)
);
#309=(
NAMED_UNIT(*)
SI_UNIT($,.STERADIAN.)
SOLID_ANGLE_UNIT()
);
#310=SHAPE_DEFINITION_REPRESENTATION(#311,#312);
#311=PRODUCT_DEFINITION_SHAPE('',$,#314);
#312=SHAPE_REPRESENTATION('',(#153),#305);
#313=PRODUCT_DEFINITION_CONTEXT('part definition',#318,'design');
#314=PRODUCT_DEFINITION('Product','Product',#315,#313);
#315=PRODUCT_DEFINITION_FORMATION('',$,#320);
#316=PRODUCT_RELATED_PRODUCT_CATEGORY('Product','Product',(#320));
#317=APPLICATION_PROTOCOL_DEFINITION('international standard',
'automotive_design',2009,#318);
#318=APPLICATION_CONTEXT(
'Core Data for Automotive Mechanical Design Process');
#319=PRODUCT_CONTEXT('part definition',#318,'mechanical');
#320=PRODUCT('Product','Product',$,(#319));
#321=PRESENTATION_STYLE_ASSIGNMENT((#322));
#322=SURFACE_STYLE_USAGE(.BOTH.,#323);
#323=SURFACE_SIDE_STYLE('',(#324));
#324=SURFACE_STYLE_FILL_AREA(#325);
#325=FILL_AREA_STYLE('',(#326));
#326=FILL_AREA_STYLE_COLOUR('',#327);
#327=COLOUR_RGB('',0.8,0.901960784313726,0.92156862745098);
ENDSEC;
END-ISO-10303-21;
