ISO-10303-21;
HEADER;
/* Generated by software containing ST-Developer
 * from STEP Tools, Inc. (www.steptools.com) 
 */

FILE_DESCRIPTION(
/* description */ (''),
/* implementation_level */ '2;1');

FILE_NAME(
/* name */ '00924.070X_3D.stp',
/* time_stamp */ '2024-12-11T13:01:36+01:00',
/* author */ ('CAD'),
/* organization */ (''),
/* preprocessor_version */ 'ST-DEVELOPER v20',
/* originating_system */ 'AutoCAD Mechanical',
/* authorisation */ '');

FILE_SCHEMA (('AUTOMOTIVE_DESIGN { 1 0 10303 214 3 1 1 }'));
ENDSEC;

DATA;
#10=MECHANICAL_DESIGN_GEOMETRIC_PRESENTATION_REPRESENTATION('',(#14),#273);
#11=PRESENTATION_LAYER_ASSIGNMENT('4','KUNSTSTOFF',(#15));
#12=SHAPE_REPRESENTATION_RELATIONSHIP('SRR','None',#279,#13);
#13=ADVANCED_BREP_SHAPE_REPRESENTATION('',(#15),#272);
#14=STYLED_ITEM('',(#288),#15);
#15=MANIFOLD_SOLID_BREP('D81',#147);
#16=CONICAL_SURFACE('',#167,34.0307242927283,0.0174532925199433);
#17=FACE_BOUND('',#46,.T.);
#18=FACE_BOUND('',#50,.T.);
#19=PLANE('',#157);
#20=PLANE('',#165);
#21=LINE('',#242,#24);
#22=LINE('',#251,#25);
#23=LINE('',#261,#26);
#24=VECTOR('',#192,42.5);
#25=VECTOR('',#203,36.5);
#26=VECTOR('',#216,34.0307242927283);
#27=CYLINDRICAL_SURFACE('',#155,42.5);
#28=CYLINDRICAL_SURFACE('',#159,36.5);
#29=TOROIDAL_SURFACE('',#151,41.6000000000004,0.899999999999653);
#30=TOROIDAL_SURFACE('',#162,35.0000000000001,1.49999999999994);
#31=TOROIDAL_SURFACE('',#170,31.5617531951438,2.00000000000003);
#32=FACE_OUTER_BOUND('',#42,.T.);
#33=FACE_OUTER_BOUND('',#43,.T.);
#34=FACE_OUTER_BOUND('',#44,.T.);
#35=FACE_OUTER_BOUND('',#45,.T.);
#36=FACE_OUTER_BOUND('',#47,.T.);
#37=FACE_OUTER_BOUND('',#48,.T.);
#38=FACE_OUTER_BOUND('',#49,.T.);
#39=FACE_OUTER_BOUND('',#51,.T.);
#40=FACE_OUTER_BOUND('',#52,.T.);
#41=FACE_OUTER_BOUND('',#53,.T.);
#42=EDGE_LOOP('',(#99));
#43=EDGE_LOOP('',(#100,#101,#102,#103,#104));
#44=EDGE_LOOP('',(#105,#106,#107,#108,#109));
#45=EDGE_LOOP('',(#110));
#46=EDGE_LOOP('',(#111));
#47=EDGE_LOOP('',(#112,#113,#114,#115,#116));
#48=EDGE_LOOP('',(#117,#118,#119,#120,#121));
#49=EDGE_LOOP('',(#122));
#50=EDGE_LOOP('',(#123));
#51=EDGE_LOOP('',(#124,#125,#126,#127,#128));
#52=EDGE_LOOP('',(#129,#130,#131,#132,#133));
#53=EDGE_LOOP('',(#134));
#54=CIRCLE('',#150,41.7670682730949);
#55=CIRCLE('',#152,42.5000000000001);
#56=CIRCLE('',#153,0.899999999999653);
#57=CIRCLE('',#154,42.5000000000001);
#58=CIRCLE('',#156,42.5);
#59=CIRCLE('',#158,36.5);
#60=CIRCLE('',#160,36.5);
#61=CIRCLE('',#161,36.5);
#62=CIRCLE('',#163,35.);
#63=CIRCLE('',#164,1.49999999999994);
#64=CIRCLE('',#166,34.5);
#65=CIRCLE('',#168,33.5614485854566);
#66=CIRCLE('',#169,33.5614485854566);
#67=CIRCLE('',#171,2.00000000000003);
#68=CIRCLE('',#172,31.8473799208917);
#69=VERTEX_POINT('',#231);
#70=VERTEX_POINT('',#234);
#71=VERTEX_POINT('',#235);
#72=VERTEX_POINT('',#240);
#73=VERTEX_POINT('',#244);
#74=VERTEX_POINT('',#247);
#75=VERTEX_POINT('',#248);
#76=VERTEX_POINT('',#253);
#77=VERTEX_POINT('',#257);
#78=VERTEX_POINT('',#260);
#79=VERTEX_POINT('',#262);
#80=VERTEX_POINT('',#266);
#81=EDGE_CURVE('',#69,#69,#54,.T.);
#82=EDGE_CURVE('',#70,#71,#55,.T.);
#83=EDGE_CURVE('',#70,#69,#56,.T.);
#84=EDGE_CURVE('',#71,#70,#57,.T.);
#85=EDGE_CURVE('',#72,#72,#58,.T.);
#86=EDGE_CURVE('',#72,#71,#21,.T.);
#87=EDGE_CURVE('',#73,#73,#59,.T.);
#88=EDGE_CURVE('',#74,#75,#60,.T.);
#89=EDGE_CURVE('',#75,#74,#61,.T.);
#90=EDGE_CURVE('',#75,#73,#22,.T.);
#91=EDGE_CURVE('',#76,#76,#62,.T.);
#92=EDGE_CURVE('',#76,#74,#63,.T.);
#93=EDGE_CURVE('',#77,#77,#64,.T.);
#94=EDGE_CURVE('',#77,#78,#23,.T.);
#95=EDGE_CURVE('',#79,#78,#65,.T.);
#96=EDGE_CURVE('',#78,#79,#66,.T.);
#97=EDGE_CURVE('',#79,#80,#67,.T.);
#98=EDGE_CURVE('',#80,#80,#68,.T.);
#99=ORIENTED_EDGE('',*,*,#81,.F.);
#100=ORIENTED_EDGE('',*,*,#82,.F.);
#101=ORIENTED_EDGE('',*,*,#83,.T.);
#102=ORIENTED_EDGE('',*,*,#81,.T.);
#103=ORIENTED_EDGE('',*,*,#83,.F.);
#104=ORIENTED_EDGE('',*,*,#84,.F.);
#105=ORIENTED_EDGE('',*,*,#85,.F.);
#106=ORIENTED_EDGE('',*,*,#86,.T.);
#107=ORIENTED_EDGE('',*,*,#84,.T.);
#108=ORIENTED_EDGE('',*,*,#82,.T.);
#109=ORIENTED_EDGE('',*,*,#86,.F.);
#110=ORIENTED_EDGE('',*,*,#85,.T.);
#111=ORIENTED_EDGE('',*,*,#87,.F.);
#112=ORIENTED_EDGE('',*,*,#88,.F.);
#113=ORIENTED_EDGE('',*,*,#89,.F.);
#114=ORIENTED_EDGE('',*,*,#90,.T.);
#115=ORIENTED_EDGE('',*,*,#87,.T.);
#116=ORIENTED_EDGE('',*,*,#90,.F.);
#117=ORIENTED_EDGE('',*,*,#91,.F.);
#118=ORIENTED_EDGE('',*,*,#92,.T.);
#119=ORIENTED_EDGE('',*,*,#88,.T.);
#120=ORIENTED_EDGE('',*,*,#89,.T.);
#121=ORIENTED_EDGE('',*,*,#92,.F.);
#122=ORIENTED_EDGE('',*,*,#91,.T.);
#123=ORIENTED_EDGE('',*,*,#93,.F.);
#124=ORIENTED_EDGE('',*,*,#93,.T.);
#125=ORIENTED_EDGE('',*,*,#94,.T.);
#126=ORIENTED_EDGE('',*,*,#95,.F.);
#127=ORIENTED_EDGE('',*,*,#96,.F.);
#128=ORIENTED_EDGE('',*,*,#94,.F.);
#129=ORIENTED_EDGE('',*,*,#95,.T.);
#130=ORIENTED_EDGE('',*,*,#96,.T.);
#131=ORIENTED_EDGE('',*,*,#97,.T.);
#132=ORIENTED_EDGE('',*,*,#98,.F.);
#133=ORIENTED_EDGE('',*,*,#97,.F.);
#134=ORIENTED_EDGE('',*,*,#98,.T.);
#135=SPHERICAL_SURFACE('',#149,224.999999994334);
#136=SPHERICAL_SURFACE('',#173,223.000000000022);
#137=ADVANCED_FACE('',(#32),#135,.T.);
#138=ADVANCED_FACE('',(#33),#29,.T.);
#139=ADVANCED_FACE('',(#34),#27,.T.);
#140=ADVANCED_FACE('',(#35,#17),#19,.T.);
#141=ADVANCED_FACE('',(#36),#28,.T.);
#142=ADVANCED_FACE('',(#37),#30,.T.);
#143=ADVANCED_FACE('',(#38,#18),#20,.T.);
#144=ADVANCED_FACE('',(#39),#16,.F.);
#145=ADVANCED_FACE('',(#40),#31,.F.);
#146=ADVANCED_FACE('',(#41),#136,.F.);
#147=CLOSED_SHELL('',(#137,#138,#139,#140,#141,#142,#143,#144,#145,#146));
#148=AXIS2_PLACEMENT_3D('',#229,#174,#175);
#149=AXIS2_PLACEMENT_3D('',#230,#176,#177);
#150=AXIS2_PLACEMENT_3D('',#232,#178,#179);
#151=AXIS2_PLACEMENT_3D('',#233,#180,#181);
#152=AXIS2_PLACEMENT_3D('',#236,#182,#183);
#153=AXIS2_PLACEMENT_3D('',#237,#184,#185);
#154=AXIS2_PLACEMENT_3D('',#238,#186,#187);
#155=AXIS2_PLACEMENT_3D('',#239,#188,#189);
#156=AXIS2_PLACEMENT_3D('',#241,#190,#191);
#157=AXIS2_PLACEMENT_3D('',#243,#193,#194);
#158=AXIS2_PLACEMENT_3D('',#245,#195,#196);
#159=AXIS2_PLACEMENT_3D('',#246,#197,#198);
#160=AXIS2_PLACEMENT_3D('',#249,#199,#200);
#161=AXIS2_PLACEMENT_3D('',#250,#201,#202);
#162=AXIS2_PLACEMENT_3D('',#252,#204,#205);
#163=AXIS2_PLACEMENT_3D('',#254,#206,#207);
#164=AXIS2_PLACEMENT_3D('',#255,#208,#209);
#165=AXIS2_PLACEMENT_3D('',#256,#210,#211);
#166=AXIS2_PLACEMENT_3D('',#258,#212,#213);
#167=AXIS2_PLACEMENT_3D('',#259,#214,#215);
#168=AXIS2_PLACEMENT_3D('',#263,#217,#218);
#169=AXIS2_PLACEMENT_3D('',#264,#219,#220);
#170=AXIS2_PLACEMENT_3D('',#265,#221,#222);
#171=AXIS2_PLACEMENT_3D('',#267,#223,#224);
#172=AXIS2_PLACEMENT_3D('',#268,#225,#226);
#173=AXIS2_PLACEMENT_3D('',#269,#227,#228);
#174=DIRECTION('axis',(0.,0.,1.));
#175=DIRECTION('refdir',(1.,0.,0.));
#176=DIRECTION('center_axis',(6.12323399571689E-17,-1.,0.));
#177=DIRECTION('ref_axis',(1.,0.,0.));
#178=DIRECTION('center_axis',(0.,-6.12323399573677E-17,-1.));
#179=DIRECTION('ref_axis',(1.,0.,0.));
#180=DIRECTION('center_axis',(0.,-6.12323399573677E-17,-1.));
#181=DIRECTION('ref_axis',(0.,1.,0.));
#182=DIRECTION('center_axis',(0.,-6.12323399573677E-17,-1.));
#183=DIRECTION('ref_axis',(1.,0.,0.));
#184=DIRECTION('center_axis',(-1.,0.,0.));
#185=DIRECTION('ref_axis',(0.,-1.,6.12323399573677E-17));
#186=DIRECTION('center_axis',(0.,-6.12323399573677E-17,-1.));
#187=DIRECTION('ref_axis',(1.,0.,0.));
#188=DIRECTION('center_axis',(0.,-6.12323399573677E-17,-1.));
#189=DIRECTION('ref_axis',(-1.,0.,0.));
#190=DIRECTION('center_axis',(0.,-6.12323399573677E-17,-1.));
#191=DIRECTION('ref_axis',(1.,0.,0.));
#192=DIRECTION('',(0.,6.12323399573677E-17,1.));
#193=DIRECTION('center_axis',(0.,-6.12323399573677E-17,-1.));
#194=DIRECTION('ref_axis',(0.,1.,-6.12323399573677E-17));
#195=DIRECTION('center_axis',(0.,-6.12323399573677E-17,-1.));
#196=DIRECTION('ref_axis',(1.,0.,0.));
#197=DIRECTION('center_axis',(0.,-6.12323399573677E-17,-1.));
#198=DIRECTION('ref_axis',(-1.,0.,0.));
#199=DIRECTION('center_axis',(0.,-6.12323399573677E-17,-1.));
#200=DIRECTION('ref_axis',(1.,0.,0.));
#201=DIRECTION('center_axis',(0.,-6.12323399573677E-17,-1.));
#202=DIRECTION('ref_axis',(1.,0.,0.));
#203=DIRECTION('',(0.,6.12323399573677E-17,1.));
#204=DIRECTION('center_axis',(0.,-6.12323399573677E-17,-1.));
#205=DIRECTION('ref_axis',(0.,1.,-6.0834138335625E-17));
#206=DIRECTION('center_axis',(0.,-6.12323399573677E-17,-1.));
#207=DIRECTION('ref_axis',(1.,0.,0.));
#208=DIRECTION('center_axis',(-1.,0.,0.));
#209=DIRECTION('ref_axis',(0.,-1.,6.12323399573677E-17));
#210=DIRECTION('center_axis',(0.,-6.12323399573677E-17,-1.));
#211=DIRECTION('ref_axis',(0.,1.,-6.12323399573677E-17));
#212=DIRECTION('center_axis',(0.,-6.12323399573677E-17,-1.));
#213=DIRECTION('ref_axis',(1.,0.,0.));
#214=DIRECTION('center_axis',(0.,-6.12323399573677E-17,-1.));
#215=DIRECTION('ref_axis',(-1.,0.,0.));
#216=DIRECTION('',(-0.0174524064372835,6.33603173434905E-17,0.999847695156391));
#217=DIRECTION('center_axis',(0.,-6.12323399573677E-17,-1.));
#218=DIRECTION('ref_axis',(1.,0.,0.));
#219=DIRECTION('center_axis',(0.,-6.12323399573677E-17,-1.));
#220=DIRECTION('ref_axis',(1.,0.,0.));
#221=DIRECTION('center_axis',(0.,-6.12323399573677E-17,-1.));
#222=DIRECTION('ref_axis',(0.,1.,0.));
#223=DIRECTION('center_axis',(-1.,0.,0.));
#224=DIRECTION('ref_axis',(0.,-1.,6.12323399573677E-17));
#225=DIRECTION('center_axis',(0.,-6.12323399573677E-17,-1.));
#226=DIRECTION('ref_axis',(1.,0.,0.));
#227=DIRECTION('center_axis',(6.12323399573684E-17,-1.,0.));
#228=DIRECTION('ref_axis',(1.,0.,0.));
#229=CARTESIAN_POINT('',(0.,0.,0.));
#230=CARTESIAN_POINT('Origin',(-5.85714587941766E-10,2.58804194189941E-15,
-164.999999993748));
#231=CARTESIAN_POINT('',(0.,-41.7670682730949,56.0893756105676));
#232=CARTESIAN_POINT('Origin',(0.,1.6125861749865E-14,56.0893756105675));
#233=CARTESIAN_POINT('Origin',(0.,1.60717104706317E-14,55.205018108126));
#234=CARTESIAN_POINT('',(0.,-42.5,55.205018108126));
#235=CARTESIAN_POINT('',(42.5,1.08669615742554E-14,55.2050181081259));
#236=CARTESIAN_POINT('Origin',(0.,1.60717104706317E-14,55.2050181081259));
#237=CARTESIAN_POINT('Origin',(0.,-41.6000000000003,55.205018108126));
#238=CARTESIAN_POINT('Origin',(0.,1.60717104706317E-14,55.2050181081259));
#239=CARTESIAN_POINT('Origin',(0.,1.60654336013846E-14,55.1025090540629));
#240=CARTESIAN_POINT('',(42.5,1.08544078357612E-14,54.9999999999999));
#241=CARTESIAN_POINT('Origin',(0.,1.60591567321375E-14,54.9999999999999));
#242=CARTESIAN_POINT('',(42.5,1.08606847050083E-14,55.1025090540629));
#243=CARTESIAN_POINT('Origin',(-36.5,1.60591567321375E-14,54.9999999999999));
#244=CARTESIAN_POINT('',(36.5,1.15891959152496E-14,54.9999999999999));
#245=CARTESIAN_POINT('Origin',(0.,1.60591567321375E-14,54.9999999999999));
#246=CARTESIAN_POINT('Origin',(0.,1.44211916382779E-14,28.2499999999999));
#247=CARTESIAN_POINT('',(0.,-36.5,1.49999999999994));
#248=CARTESIAN_POINT('',(36.5,8.31326572753047E-15,1.49999999999994));
#249=CARTESIAN_POINT('Origin',(0.,1.27832265444183E-14,1.49999999999994));
#250=CARTESIAN_POINT('Origin',(0.,1.27832265444183E-14,1.49999999999994));
#251=CARTESIAN_POINT('',(36.5,9.95123082139005E-15,28.2499999999999));
#252=CARTESIAN_POINT('Origin',(0.,1.27832265444183E-14,1.49999999999991));
#253=CARTESIAN_POINT('',(0.,-35.,-2.8421709430404E-14));
#254=CARTESIAN_POINT('Origin',(0.,1.26913780344823E-14,-2.8421709430404E-14));
#255=CARTESIAN_POINT('Origin',(0.,-35.,1.49999999999991));
#256=CARTESIAN_POINT('Origin',(-34.5,1.26913780344823E-14,-5.6843418860808E-14));
#257=CARTESIAN_POINT('',(34.5,8.46634657742389E-15,-5.6843418860808E-14));
#258=CARTESIAN_POINT('Origin',(0.,1.26913780344823E-14,-5.6843418860808E-14));
#259=CARTESIAN_POINT('Origin',(0.,1.43375964679035E-14,26.8847872638443));
#260=CARTESIAN_POINT('',(33.5614485854566,1.18737228428319E-14,53.7695745276886));
#261=CARTESIAN_POINT('',(34.0307242927283,1.01700347101279E-14,26.8847872638443));
#262=CARTESIAN_POINT('',(0.,-33.5614485854565,53.7695745276886));
#263=CARTESIAN_POINT('Origin',(0.,1.59838149013247E-14,53.7695745276886));
#264=CARTESIAN_POINT('Origin',(0.,1.59838149013247E-14,53.7695745276886));
#265=CARTESIAN_POINT('Origin',(0.,1.59816775979566E-14,53.7346697148141));
#266=CARTESIAN_POINT('',(0.,-31.8473799208917,55.7141689882513));
#267=CARTESIAN_POINT('Origin',(0.,-31.5617531951437,53.7346697148141));
#268=CARTESIAN_POINT('Origin',(0.,1.61028869704131E-14,55.7141689882513));
#269=CARTESIAN_POINT('Origin',(1.81898940354586E-12,2.58804194151539E-15,
-165.00000000002));
#270=UNCERTAINTY_MEASURE_WITH_UNIT(LENGTH_MEASURE(0.001),#274,
'DISTANCE_ACCURACY_VALUE',
'Maximum model space distance between geometric entities at asserted c
onnectivities');
#271=UNCERTAINTY_MEASURE_WITH_UNIT(LENGTH_MEASURE(0.001),#274,
'DISTANCE_ACCURACY_VALUE',
'Maximum model space distance between geometric entities at asserted c
onnectivities');
#272=(
GEOMETRIC_REPRESENTATION_CONTEXT(3)
GLOBAL_UNCERTAINTY_ASSIGNED_CONTEXT((#270))
GLOBAL_UNIT_ASSIGNED_CONTEXT((#274,#275,#276))
REPRESENTATION_CONTEXT('','3D')
);
#273=(
GEOMETRIC_REPRESENTATION_CONTEXT(3)
GLOBAL_UNCERTAINTY_ASSIGNED_CONTEXT((#271))
GLOBAL_UNIT_ASSIGNED_CONTEXT((#274,#275,#276))
REPRESENTATION_CONTEXT('','3D')
);
#274=(
LENGTH_UNIT()
NAMED_UNIT(*)
SI_UNIT(.CENTI.,.METRE.)
);
#275=(
NAMED_UNIT(*)
PLANE_ANGLE_UNIT()
SI_UNIT($,.RADIAN.)
);
#276=(
NAMED_UNIT(*)
SI_UNIT($,.STERADIAN.)
SOLID_ANGLE_UNIT()
);
#277=SHAPE_DEFINITION_REPRESENTATION(#278,#279);
#278=PRODUCT_DEFINITION_SHAPE('',$,#281);
#279=SHAPE_REPRESENTATION('',(#148),#272);
#280=PRODUCT_DEFINITION_CONTEXT('part definition',#285,'design');
#281=PRODUCT_DEFINITION('Product','Product',#282,#280);
#282=PRODUCT_DEFINITION_FORMATION('',$,#287);
#283=PRODUCT_RELATED_PRODUCT_CATEGORY('Product','Product',(#287));
#284=APPLICATION_PROTOCOL_DEFINITION('international standard',
'automotive_design',2009,#285);
#285=APPLICATION_CONTEXT(
'Core Data for Automotive Mechanical Design Process');
#286=PRODUCT_CONTEXT('part definition',#285,'mechanical');
#287=PRODUCT('Product','Product',$,(#286));
#288=PRESENTATION_STYLE_ASSIGNMENT((#289));
#289=SURFACE_STYLE_USAGE(.BOTH.,#290);
#290=SURFACE_SIDE_STYLE('',(#291));
#291=SURFACE_STYLE_FILL_AREA(#292);
#292=FILL_AREA_STYLE('',(#293));
#293=FILL_AREA_STYLE_COLOUR('',#294);
#294=COLOUR_RGB('',0.8,0.901960784313726,0.92156862745098);
ENDSEC;
END-ISO-10303-21;
