ISO-10303-21;
HEADER;
/* Generated by software containing ST-Developer
 * from STEP Tools, Inc. (www.steptools.com) 
 */

FILE_DESCRIPTION(
/* description */ (''),
/* implementation_level */ '2;1');

FILE_NAME(
/* name */ '00924.040X_3D.stp',
/* time_stamp */ '2024-12-11T13:01:32+01:00',
/* author */ ('CAD'),
/* organization */ (''),
/* preprocessor_version */ 'ST-DEVELOPER v20',
/* originating_system */ 'AutoCAD Mechanical',
/* authorisation */ '');

FILE_SCHEMA (('AUTOMOTIVE_DESIGN { 1 0 10303 214 3 1 1 }'));
ENDSEC;

DATA;
#10=MECHANICAL_DESIGN_GEOMETRIC_PRESENTATION_REPRESENTATION('',(#14),#263);
#11=PRESENTATION_LAYER_ASSIGNMENT('4','KUNSTSTOFF',(#15));
#12=SHAPE_REPRESENTATION_RELATIONSHIP('SRR','None',#269,#13);
#13=ADVANCED_BREP_SHAPE_REPRESENTATION('',(#15),#262);
#14=STYLED_ITEM('',(#278),#15);
#15=MANIFOLD_SOLID_BREP('682',#141);
#16=CONICAL_SURFACE('',#160,19.2387098205855,0.017453292519941);
#17=FACE_BOUND('',#43,.T.);
#18=PLANE('',#151);
#19=LINE('',#233,#22);
#20=LINE('',#242,#23);
#21=LINE('',#251,#24);
#22=VECTOR('',#185,25.);
#23=VECTOR('',#196,21.);
#24=VECTOR('',#207,19.2387098205855);
#25=CYLINDRICAL_SURFACE('',#149,25.);
#26=CYLINDRICAL_SURFACE('',#153,21.);
#27=TOROIDAL_SURFACE('',#145,24.0000000000002,0.999999999999829);
#28=TOROIDAL_SURFACE('',#156,19.5,1.5);
#29=TOROIDAL_SURFACE('',#163,17.4776480984365,1.50000000000002);
#30=FACE_OUTER_BOUND('',#39,.T.);
#31=FACE_OUTER_BOUND('',#40,.T.);
#32=FACE_OUTER_BOUND('',#41,.T.);
#33=FACE_OUTER_BOUND('',#42,.T.);
#34=FACE_OUTER_BOUND('',#44,.T.);
#35=FACE_OUTER_BOUND('',#45,.T.);
#36=FACE_OUTER_BOUND('',#46,.T.);
#37=FACE_OUTER_BOUND('',#47,.T.);
#38=FACE_OUTER_BOUND('',#48,.T.);
#39=EDGE_LOOP('',(#94));
#40=EDGE_LOOP('',(#95,#96,#97,#98,#99));
#41=EDGE_LOOP('',(#100,#101,#102,#103,#104));
#42=EDGE_LOOP('',(#105));
#43=EDGE_LOOP('',(#106));
#44=EDGE_LOOP('',(#107,#108,#109,#110,#111));
#45=EDGE_LOOP('',(#112,#113,#114,#115,#116,#117));
#46=EDGE_LOOP('',(#118,#119,#120,#121,#122,#123));
#47=EDGE_LOOP('',(#124,#125,#126,#127,#128));
#48=EDGE_LOOP('',(#129));
#49=CIRCLE('',#144,24.2424242424248);
#50=CIRCLE('',#146,25.0000000000001);
#51=CIRCLE('',#147,0.999999999999829);
#52=CIRCLE('',#148,25.0000000000001);
#53=CIRCLE('',#150,25.);
#54=CIRCLE('',#152,21.0000000000001);
#55=CIRCLE('',#154,21.);
#56=CIRCLE('',#155,21.);
#57=CIRCLE('',#157,19.5);
#58=CIRCLE('',#158,1.5);
#59=CIRCLE('',#159,19.5);
#60=CIRCLE('',#161,18.9774196411711);
#61=CIRCLE('',#162,18.9774196411711);
#62=CIRCLE('',#164,1.50000000000002);
#63=CIRCLE('',#165,17.7479210071739);
#64=VERTEX_POINT('',#222);
#65=VERTEX_POINT('',#225);
#66=VERTEX_POINT('',#226);
#67=VERTEX_POINT('',#231);
#68=VERTEX_POINT('',#235);
#69=VERTEX_POINT('',#238);
#70=VERTEX_POINT('',#239);
#71=VERTEX_POINT('',#244);
#72=VERTEX_POINT('',#245);
#73=VERTEX_POINT('',#250);
#74=VERTEX_POINT('',#252);
#75=VERTEX_POINT('',#256);
#76=EDGE_CURVE('',#64,#64,#49,.T.);
#77=EDGE_CURVE('',#65,#66,#50,.T.);
#78=EDGE_CURVE('',#65,#64,#51,.T.);
#79=EDGE_CURVE('',#66,#65,#52,.T.);
#80=EDGE_CURVE('',#67,#67,#53,.T.);
#81=EDGE_CURVE('',#67,#66,#19,.T.);
#82=EDGE_CURVE('',#68,#68,#54,.T.);
#83=EDGE_CURVE('',#69,#70,#55,.T.);
#84=EDGE_CURVE('',#70,#69,#56,.T.);
#85=EDGE_CURVE('',#70,#68,#20,.T.);
#86=EDGE_CURVE('',#71,#72,#57,.T.);
#87=EDGE_CURVE('',#71,#69,#58,.T.);
#88=EDGE_CURVE('',#72,#71,#59,.T.);
#89=EDGE_CURVE('',#72,#73,#21,.T.);
#90=EDGE_CURVE('',#74,#73,#60,.T.);
#91=EDGE_CURVE('',#73,#74,#61,.T.);
#92=EDGE_CURVE('',#74,#75,#62,.T.);
#93=EDGE_CURVE('',#75,#75,#63,.T.);
#94=ORIENTED_EDGE('',*,*,#76,.F.);
#95=ORIENTED_EDGE('',*,*,#77,.F.);
#96=ORIENTED_EDGE('',*,*,#78,.T.);
#97=ORIENTED_EDGE('',*,*,#76,.T.);
#98=ORIENTED_EDGE('',*,*,#78,.F.);
#99=ORIENTED_EDGE('',*,*,#79,.F.);
#100=ORIENTED_EDGE('',*,*,#80,.F.);
#101=ORIENTED_EDGE('',*,*,#81,.T.);
#102=ORIENTED_EDGE('',*,*,#79,.T.);
#103=ORIENTED_EDGE('',*,*,#77,.T.);
#104=ORIENTED_EDGE('',*,*,#81,.F.);
#105=ORIENTED_EDGE('',*,*,#80,.T.);
#106=ORIENTED_EDGE('',*,*,#82,.F.);
#107=ORIENTED_EDGE('',*,*,#83,.F.);
#108=ORIENTED_EDGE('',*,*,#84,.F.);
#109=ORIENTED_EDGE('',*,*,#85,.T.);
#110=ORIENTED_EDGE('',*,*,#82,.T.);
#111=ORIENTED_EDGE('',*,*,#85,.F.);
#112=ORIENTED_EDGE('',*,*,#86,.F.);
#113=ORIENTED_EDGE('',*,*,#87,.T.);
#114=ORIENTED_EDGE('',*,*,#83,.T.);
#115=ORIENTED_EDGE('',*,*,#84,.T.);
#116=ORIENTED_EDGE('',*,*,#87,.F.);
#117=ORIENTED_EDGE('',*,*,#88,.F.);
#118=ORIENTED_EDGE('',*,*,#86,.T.);
#119=ORIENTED_EDGE('',*,*,#89,.T.);
#120=ORIENTED_EDGE('',*,*,#90,.F.);
#121=ORIENTED_EDGE('',*,*,#91,.F.);
#122=ORIENTED_EDGE('',*,*,#89,.F.);
#123=ORIENTED_EDGE('',*,*,#88,.T.);
#124=ORIENTED_EDGE('',*,*,#90,.T.);
#125=ORIENTED_EDGE('',*,*,#91,.T.);
#126=ORIENTED_EDGE('',*,*,#92,.T.);
#127=ORIENTED_EDGE('',*,*,#93,.F.);
#128=ORIENTED_EDGE('',*,*,#92,.F.);
#129=ORIENTED_EDGE('',*,*,#93,.T.);
#130=SPHERICAL_SURFACE('',#143,99.9999999997172);
#131=SPHERICAL_SURFACE('',#166,98.5000000009787);
#132=ADVANCED_FACE('',(#30),#130,.T.);
#133=ADVANCED_FACE('',(#31),#27,.T.);
#134=ADVANCED_FACE('',(#32),#25,.T.);
#135=ADVANCED_FACE('',(#33,#17),#18,.T.);
#136=ADVANCED_FACE('',(#34),#26,.T.);
#137=ADVANCED_FACE('',(#35),#28,.T.);
#138=ADVANCED_FACE('',(#36),#16,.F.);
#139=ADVANCED_FACE('',(#37),#29,.F.);
#140=ADVANCED_FACE('',(#38),#131,.F.);
#141=CLOSED_SHELL('',(#132,#133,#134,#135,#136,#137,#138,#139,#140));
#142=AXIS2_PLACEMENT_3D('',#220,#167,#168);
#143=AXIS2_PLACEMENT_3D('',#221,#169,#170);
#144=AXIS2_PLACEMENT_3D('',#223,#171,#172);
#145=AXIS2_PLACEMENT_3D('',#224,#173,#174);
#146=AXIS2_PLACEMENT_3D('',#227,#175,#176);
#147=AXIS2_PLACEMENT_3D('',#228,#177,#178);
#148=AXIS2_PLACEMENT_3D('',#229,#179,#180);
#149=AXIS2_PLACEMENT_3D('',#230,#181,#182);
#150=AXIS2_PLACEMENT_3D('',#232,#183,#184);
#151=AXIS2_PLACEMENT_3D('',#234,#186,#187);
#152=AXIS2_PLACEMENT_3D('',#236,#188,#189);
#153=AXIS2_PLACEMENT_3D('',#237,#190,#191);
#154=AXIS2_PLACEMENT_3D('',#240,#192,#193);
#155=AXIS2_PLACEMENT_3D('',#241,#194,#195);
#156=AXIS2_PLACEMENT_3D('',#243,#197,#198);
#157=AXIS2_PLACEMENT_3D('',#246,#199,#200);
#158=AXIS2_PLACEMENT_3D('',#247,#201,#202);
#159=AXIS2_PLACEMENT_3D('',#248,#203,#204);
#160=AXIS2_PLACEMENT_3D('',#249,#205,#206);
#161=AXIS2_PLACEMENT_3D('',#253,#208,#209);
#162=AXIS2_PLACEMENT_3D('',#254,#210,#211);
#163=AXIS2_PLACEMENT_3D('',#255,#212,#213);
#164=AXIS2_PLACEMENT_3D('',#257,#214,#215);
#165=AXIS2_PLACEMENT_3D('',#258,#216,#217);
#166=AXIS2_PLACEMENT_3D('',#259,#218,#219);
#167=DIRECTION('axis',(0.,0.,1.));
#168=DIRECTION('refdir',(1.,0.,0.));
#169=DIRECTION('center_axis',(6.12323399573797E-17,-1.,0.));
#170=DIRECTION('ref_axis',(1.,0.,0.));
#171=DIRECTION('center_axis',(0.,-6.12323399573677E-17,-1.));
#172=DIRECTION('ref_axis',(1.,0.,0.));
#173=DIRECTION('center_axis',(0.,-6.12323399573677E-17,-1.));
#174=DIRECTION('ref_axis',(0.,1.,0.));
#175=DIRECTION('center_axis',(0.,-6.12323399573677E-17,-1.));
#176=DIRECTION('ref_axis',(1.,0.,0.));
#177=DIRECTION('center_axis',(-1.,0.,0.));
#178=DIRECTION('ref_axis',(0.,-1.,6.12323399573677E-17));
#179=DIRECTION('center_axis',(0.,-6.12323399573677E-17,-1.));
#180=DIRECTION('ref_axis',(1.,0.,0.));
#181=DIRECTION('center_axis',(0.,-6.12323399573677E-17,-1.));
#182=DIRECTION('ref_axis',(-1.,0.,0.));
#183=DIRECTION('center_axis',(0.,-6.12323399573677E-17,-1.));
#184=DIRECTION('ref_axis',(1.,0.,0.));
#185=DIRECTION('',(0.,6.12323399573677E-17,1.));
#186=DIRECTION('center_axis',(0.,-6.12323399573677E-17,-1.));
#187=DIRECTION('ref_axis',(0.,1.,-6.12323399573677E-17));
#188=DIRECTION('center_axis',(0.,-6.12323399573677E-17,-1.));
#189=DIRECTION('ref_axis',(1.,0.,0.));
#190=DIRECTION('center_axis',(0.,-6.12323399573677E-17,-1.));
#191=DIRECTION('ref_axis',(-1.,0.,0.));
#192=DIRECTION('center_axis',(0.,-6.12323399573677E-17,-1.));
#193=DIRECTION('ref_axis',(1.,0.,0.));
#194=DIRECTION('center_axis',(0.,-6.12323399573677E-17,-1.));
#195=DIRECTION('ref_axis',(1.,0.,0.));
#196=DIRECTION('',(0.,6.12323399573677E-17,1.));
#197=DIRECTION('center_axis',(0.,-6.12323399573677E-17,-1.));
#198=DIRECTION('ref_axis',(0.,1.,-5.28677630773884E-17));
#199=DIRECTION('center_axis',(0.,-6.12323399573677E-17,-1.));
#200=DIRECTION('ref_axis',(1.,0.,0.));
#201=DIRECTION('center_axis',(-1.,0.,0.));
#202=DIRECTION('ref_axis',(0.,-1.,6.12323399573677E-17));
#203=DIRECTION('center_axis',(0.,-6.12323399573677E-17,-1.));
#204=DIRECTION('ref_axis',(1.,0.,0.));
#205=DIRECTION('center_axis',(0.,-6.12323399573677E-17,-1.));
#206=DIRECTION('ref_axis',(-1.,0.,0.));
#207=DIRECTION('',(-0.0174524064372812,6.33603173434902E-17,0.999847695156391));
#208=DIRECTION('center_axis',(0.,-6.12323399573677E-17,-1.));
#209=DIRECTION('ref_axis',(1.,0.,0.));
#210=DIRECTION('center_axis',(0.,-6.12323399573677E-17,-1.));
#211=DIRECTION('ref_axis',(1.,0.,0.));
#212=DIRECTION('center_axis',(0.,-6.12323399573677E-17,-1.));
#213=DIRECTION('ref_axis',(0.,1.,0.));
#214=DIRECTION('center_axis',(-1.,0.,0.));
#215=DIRECTION('ref_axis',(0.,-1.,6.12323399573677E-17));
#216=DIRECTION('center_axis',(0.,-6.12323399573677E-17,-1.));
#217=DIRECTION('ref_axis',(1.,0.,0.));
#218=DIRECTION('center_axis',(6.1232339957371E-17,-1.,0.));
#219=DIRECTION('ref_axis',(1.,0.,0.));
#220=CARTESIAN_POINT('',(0.,0.,0.));
#221=CARTESIAN_POINT('Origin',(-3.95630195271224E-11,2.50482819528739E-15,
-65.4999999996777));
#222=CARTESIAN_POINT('',(0.,-24.2424242424248,31.5170339004975));
#223=CARTESIAN_POINT('Origin',(0.,8.44540819671838E-15,31.5170339004975));
#224=CARTESIAN_POINT('Origin',(0.,8.38600239670389E-15,30.5468635614928));
#225=CARTESIAN_POINT('',(0.,-25.,30.5468635614927));
#226=CARTESIAN_POINT('',(25.,5.3243853988355E-15,30.5468635614927));
#227=CARTESIAN_POINT('Origin',(0.,8.38600239670389E-15,30.5468635614927));
#228=CARTESIAN_POINT('Origin',(0.,-24.0000000000002,30.5468635614928));
#229=CARTESIAN_POINT('Origin',(0.,8.38600239670389E-15,30.5468635614927));
#230=CARTESIAN_POINT('Origin',(0.,8.36925952895008E-15,30.2734317807464));
#231=CARTESIAN_POINT('',(25.,5.29089966332788E-15,30.));
#232=CARTESIAN_POINT('Origin',(0.,8.35251666119627E-15,30.));
#233=CARTESIAN_POINT('',(25.,5.30764253108169E-15,30.2734317807464));
#234=CARTESIAN_POINT('Origin',(-21.0000000000001,8.35251666119627E-15,30.));
#235=CARTESIAN_POINT('',(21.,5.78075838298683E-15,30.));
#236=CARTESIAN_POINT('Origin',(0.,8.35251666119627E-15,30.));
#237=CARTESIAN_POINT('Origin',(0.,7.47995581680378E-15,15.75));
#238=CARTESIAN_POINT('',(0.,-21.,1.5));
#239=CARTESIAN_POINT('',(21.,4.03563669420185E-15,1.5));
#240=CARTESIAN_POINT('Origin',(0.,6.60739497241129E-15,1.5));
#241=CARTESIAN_POINT('Origin',(0.,6.60739497241129E-15,1.5));
#242=CARTESIAN_POINT('',(21.,4.90819753859434E-15,15.75));
#243=CARTESIAN_POINT('Origin',(0.,6.60739497241129E-15,1.5));
#244=CARTESIAN_POINT('',(0.,-19.5,0.));
#245=CARTESIAN_POINT('',(19.5,4.1274852041379E-15,0.));
#246=CARTESIAN_POINT('Origin',(0.,6.51554646247524E-15,0.));
#247=CARTESIAN_POINT('Origin',(0.,-19.5,1.5));
#248=CARTESIAN_POINT('Origin',(0.,6.51554646247524E-15,0.));
#249=CARTESIAN_POINT('Origin',(0.,7.43215199555266E-15,14.9693043531506));
#250=CARTESIAN_POINT('',(18.9774196411711,6.02469390666645E-15,29.9386087063012));
#251=CARTESIAN_POINT('',(19.2387098205855,5.07608955540217E-15,14.9693043531506));
#252=CARTESIAN_POINT('',(0.,-18.9774196411711,29.9386087063012));
#253=CARTESIAN_POINT('Origin',(0.,8.34875752863008E-15,29.9386087063012));
#254=CARTESIAN_POINT('Origin',(0.,8.34875752863008E-15,29.9386087063012));
#255=CARTESIAN_POINT('Origin',(0.,8.34715455110402E-15,29.9124300966453));
#256=CARTESIAN_POINT('',(0.,-17.7479210071739,31.3878800465936));
#257=CARTESIAN_POINT('Origin',(0.,-17.4776480984365,29.9124300966453));
#258=CARTESIAN_POINT('Origin',(0.,8.43749980402934E-15,31.3878800465936));
#259=CARTESIAN_POINT('Origin',(8.13429323898163E-11,2.50482819521271E-15,
-65.5000000008974));
#260=UNCERTAINTY_MEASURE_WITH_UNIT(LENGTH_MEASURE(0.001),#264,
'DISTANCE_ACCURACY_VALUE',
'Maximum model space distance between geometric entities at asserted c
onnectivities');
#261=UNCERTAINTY_MEASURE_WITH_UNIT(LENGTH_MEASURE(0.001),#264,
'DISTANCE_ACCURACY_VALUE',
'Maximum model space distance between geometric entities at asserted c
onnectivities');
#262=(
GEOMETRIC_REPRESENTATION_CONTEXT(3)
GLOBAL_UNCERTAINTY_ASSIGNED_CONTEXT((#260))
GLOBAL_UNIT_ASSIGNED_CONTEXT((#264,#265,#266))
REPRESENTATION_CONTEXT('','3D')
);
#263=(
GEOMETRIC_REPRESENTATION_CONTEXT(3)
GLOBAL_UNCERTAINTY_ASSIGNED_CONTEXT((#261))
GLOBAL_UNIT_ASSIGNED_CONTEXT((#264,#265,#266))
REPRESENTATION_CONTEXT('','3D')
);
#264=(
LENGTH_UNIT()
NAMED_UNIT(*)
SI_UNIT(.CENTI.,.METRE.)
);
#265=(
NAMED_UNIT(*)
PLANE_ANGLE_UNIT()
SI_UNIT($,.RADIAN.)
);
#266=(
NAMED_UNIT(*)
SI_UNIT($,.STERADIAN.)
SOLID_ANGLE_UNIT()
);
#267=SHAPE_DEFINITION_REPRESENTATION(#268,#269);
#268=PRODUCT_DEFINITION_SHAPE('',$,#271);
#269=SHAPE_REPRESENTATION('',(#142),#262);
#270=PRODUCT_DEFINITION_CONTEXT('part definition',#275,'design');
#271=PRODUCT_DEFINITION('Product','Product',#272,#270);
#272=PRODUCT_DEFINITION_FORMATION('',$,#277);
#273=PRODUCT_RELATED_PRODUCT_CATEGORY('Product','Product',(#277));
#274=APPLICATION_PROTOCOL_DEFINITION('international standard',
'automotive_design',2009,#275);
#275=APPLICATION_CONTEXT(
'Core Data for Automotive Mechanical Design Process');
#276=PRODUCT_CONTEXT('part definition',#275,'mechanical');
#277=PRODUCT('Product','Product',$,(#276));
#278=PRESENTATION_STYLE_ASSIGNMENT((#279));
#279=SURFACE_STYLE_USAGE(.BOTH.,#280);
#280=SURFACE_SIDE_STYLE('',(#281));
#281=SURFACE_STYLE_FILL_AREA(#282);
#282=FILL_AREA_STYLE('',(#283));
#283=FILL_AREA_STYLE_COLOUR('',#284);
#284=COLOUR_RGB('',0.8,0.901960784313726,0.92156862745098);
ENDSEC;
END-ISO-10303-21;
