ISO-10303-21;
HEADER;
/* Generated by software containing ST-Developer
 * from STEP Tools, Inc. (www.steptools.com) 
 */

FILE_DESCRIPTION(
/* description */ (''),
/* implementation_level */ '2;1');

FILE_NAME(
/* name */ '00911.032X_3D.stp',
/* time_stamp */ '2024-12-11T13:01:14+01:00',
/* author */ ('CAD'),
/* organization */ (''),
/* preprocessor_version */ 'ST-DEVELOPER v20',
/* originating_system */ 'AutoCAD Mechanical',
/* authorisation */ '');

FILE_SCHEMA (('AUTOMOTIVE_DESIGN { 1 0 10303 214 3 1 1 }'));
ENDSEC;

DATA;
#10=MECHANICAL_DESIGN_GEOMETRIC_PRESENTATION_REPRESENTATION('',(#14),#339);
#11=PRESENTATION_LAYER_ASSIGNMENT('2','DICHTUNG',(#15));
#12=SHAPE_REPRESENTATION_RELATIONSHIP('SRR','None',#345,#13);
#13=ADVANCED_BREP_SHAPE_REPRESENTATION('',(#15),#338);
#14=STYLED_ITEM('',(#354),#15);
#15=MANIFOLD_SOLID_BREP('32B',#175);
#16=(
BOUNDED_SURFACE()
B_SPLINE_SURFACE(2,2,((#308,#309,#310,#311,#312,#313,#314,#315,#316),(#317,
#318,#319,#320,#321,#322,#323,#324,#325),(#326,#327,#328,#329,#330,#331,
#332,#333,#334)),.UNSPECIFIED.,.F.,.T.,.F.)
B_SPLINE_SURFACE_WITH_KNOTS((3,3),(3,2,2,2,3),(-0.579301493019338,-0.198254763340043),
(-3.14159265358979,-1.5707963267949,0.,1.5707963267949,3.14159265358979),
 .UNSPECIFIED.)
GEOMETRIC_REPRESENTATION_ITEM()
RATIONAL_B_SPLINE_SURFACE(((1.,0.707106781186548,1.,0.707106781186548,1.,
0.707106781186548,1.,0.707106781186548,1.),(0.981905258525776,0.694311866786306,
0.981905258525776,0.694311866786306,0.981905258525776,0.694311866786306,
0.981905258525776,0.694311866786306,0.981905258525776),(1.,0.707106781186548,
1.,0.707106781186548,1.,0.707106781186548,1.,0.707106781186548,1.)))
REPRESENTATION_ITEM('')
SURFACE()
);
#17=TOROIDAL_SURFACE('',#197,15.0019236462177,3.99999999999999);
#18=CYLINDRICAL_SURFACE('',#191,16.25);
#19=FACE_BOUND('',#41,.T.);
#20=FACE_BOUND('',#45,.T.);
#21=FACE_BOUND('',#50,.T.);
#22=FACE_BOUND('',#53,.T.);
#23=PLANE('',#181);
#24=PLANE('',#187);
#25=PLANE('',#195);
#26=PLANE('',#200);
#27=FACE_OUTER_BOUND('',#39,.T.);
#28=FACE_OUTER_BOUND('',#40,.T.);
#29=FACE_OUTER_BOUND('',#42,.T.);
#30=FACE_OUTER_BOUND('',#43,.T.);
#31=FACE_OUTER_BOUND('',#44,.T.);
#32=FACE_OUTER_BOUND('',#46,.T.);
#33=FACE_OUTER_BOUND('',#47,.T.);
#34=FACE_OUTER_BOUND('',#48,.T.);
#35=FACE_OUTER_BOUND('',#49,.T.);
#36=FACE_OUTER_BOUND('',#51,.T.);
#37=FACE_OUTER_BOUND('',#52,.T.);
#38=FACE_OUTER_BOUND('',#54,.T.);
#39=EDGE_LOOP('',(#116,#117,#118,#119,#120));
#40=EDGE_LOOP('',(#121));
#41=EDGE_LOOP('',(#122));
#42=EDGE_LOOP('',(#123,#124,#125,#126));
#43=EDGE_LOOP('',(#127,#128,#129,#130));
#44=EDGE_LOOP('',(#131));
#45=EDGE_LOOP('',(#132));
#46=EDGE_LOOP('',(#133,#134,#135,#136));
#47=EDGE_LOOP('',(#137,#138,#139,#140));
#48=EDGE_LOOP('',(#141,#142,#143,#144));
#49=EDGE_LOOP('',(#145));
#50=EDGE_LOOP('',(#146));
#51=EDGE_LOOP('',(#147,#148,#149,#150));
#52=EDGE_LOOP('',(#151));
#53=EDGE_LOOP('',(#152));
#54=EDGE_LOOP('',(#153,#154,#155,#156,#157));
#55=LINE('',#268,#61);
#56=LINE('',#277,#62);
#57=LINE('',#282,#63);
#58=LINE('',#288,#64);
#59=LINE('',#292,#65);
#60=LINE('',#296,#66);
#61=VECTOR('',#209,18.8428328286357);
#62=VECTOR('',#220,17.9509618943233);
#63=VECTOR('',#227,15.4509618943233);
#64=VECTOR('',#234,14.375);
#65=VECTOR('',#239,16.25);
#66=VECTOR('',#244,16.6519237886467);
#67=CIRCLE('',#178,19.);
#68=CIRCLE('',#179,18.6856656572715);
#69=CIRCLE('',#180,18.6856656572715);
#70=CIRCLE('',#182,18.5);
#71=CIRCLE('',#184,17.4019237886466);
#72=CIRCLE('',#186,13.5);
#73=CIRCLE('',#188,12.5);
#74=CIRCLE('',#190,16.25);
#75=CIRCLE('',#192,16.25);
#76=CIRCLE('',#194,17.0538475772934);
#77=CIRCLE('',#196,17.4999999999997);
#78=CIRCLE('',#198,19.);
#79=CIRCLE('',#199,3.99999999999999);
#80=CIRCLE('',#201,17.25);
#81=CIRCLE('',#202,10.000000000001);
#82=VERTEX_POINT('',#265);
#83=VERTEX_POINT('',#267);
#84=VERTEX_POINT('',#269);
#85=VERTEX_POINT('',#273);
#86=VERTEX_POINT('',#276);
#87=VERTEX_POINT('',#280);
#88=VERTEX_POINT('',#284);
#89=VERTEX_POINT('',#287);
#90=VERTEX_POINT('',#291);
#91=VERTEX_POINT('',#295);
#92=VERTEX_POINT('',#299);
#93=VERTEX_POINT('',#302);
#94=VERTEX_POINT('',#306);
#95=EDGE_CURVE('',#82,#82,#67,.T.);
#96=EDGE_CURVE('',#82,#83,#55,.T.);
#97=EDGE_CURVE('',#83,#84,#68,.T.);
#98=EDGE_CURVE('',#84,#83,#69,.T.);
#99=EDGE_CURVE('',#85,#85,#70,.T.);
#100=EDGE_CURVE('',#85,#86,#56,.T.);
#101=EDGE_CURVE('',#86,#86,#71,.T.);
#102=EDGE_CURVE('',#87,#87,#72,.T.);
#103=EDGE_CURVE('',#87,#86,#57,.T.);
#104=EDGE_CURVE('',#88,#88,#73,.T.);
#105=EDGE_CURVE('',#88,#89,#58,.T.);
#106=EDGE_CURVE('',#89,#89,#74,.T.);
#107=EDGE_CURVE('',#89,#90,#59,.T.);
#108=EDGE_CURVE('',#90,#90,#75,.T.);
#109=EDGE_CURVE('',#90,#91,#60,.T.);
#110=EDGE_CURVE('',#91,#91,#76,.T.);
#111=EDGE_CURVE('',#92,#92,#77,.T.);
#112=EDGE_CURVE('',#93,#93,#78,.T.);
#113=EDGE_CURVE('',#93,#92,#79,.T.);
#114=EDGE_CURVE('',#94,#94,#80,.T.);
#115=EDGE_CURVE('',#84,#94,#81,.T.);
#116=ORIENTED_EDGE('',*,*,#95,.F.);
#117=ORIENTED_EDGE('',*,*,#96,.T.);
#118=ORIENTED_EDGE('',*,*,#97,.T.);
#119=ORIENTED_EDGE('',*,*,#98,.T.);
#120=ORIENTED_EDGE('',*,*,#96,.F.);
#121=ORIENTED_EDGE('',*,*,#95,.T.);
#122=ORIENTED_EDGE('',*,*,#99,.F.);
#123=ORIENTED_EDGE('',*,*,#99,.T.);
#124=ORIENTED_EDGE('',*,*,#100,.T.);
#125=ORIENTED_EDGE('',*,*,#101,.F.);
#126=ORIENTED_EDGE('',*,*,#100,.F.);
#127=ORIENTED_EDGE('',*,*,#102,.F.);
#128=ORIENTED_EDGE('',*,*,#103,.T.);
#129=ORIENTED_EDGE('',*,*,#101,.T.);
#130=ORIENTED_EDGE('',*,*,#103,.F.);
#131=ORIENTED_EDGE('',*,*,#102,.T.);
#132=ORIENTED_EDGE('',*,*,#104,.F.);
#133=ORIENTED_EDGE('',*,*,#104,.T.);
#134=ORIENTED_EDGE('',*,*,#105,.T.);
#135=ORIENTED_EDGE('',*,*,#106,.F.);
#136=ORIENTED_EDGE('',*,*,#105,.F.);
#137=ORIENTED_EDGE('',*,*,#106,.T.);
#138=ORIENTED_EDGE('',*,*,#107,.T.);
#139=ORIENTED_EDGE('',*,*,#108,.F.);
#140=ORIENTED_EDGE('',*,*,#107,.F.);
#141=ORIENTED_EDGE('',*,*,#108,.T.);
#142=ORIENTED_EDGE('',*,*,#109,.T.);
#143=ORIENTED_EDGE('',*,*,#110,.F.);
#144=ORIENTED_EDGE('',*,*,#109,.F.);
#145=ORIENTED_EDGE('',*,*,#111,.F.);
#146=ORIENTED_EDGE('',*,*,#110,.T.);
#147=ORIENTED_EDGE('',*,*,#112,.F.);
#148=ORIENTED_EDGE('',*,*,#113,.T.);
#149=ORIENTED_EDGE('',*,*,#111,.T.);
#150=ORIENTED_EDGE('',*,*,#113,.F.);
#151=ORIENTED_EDGE('',*,*,#112,.T.);
#152=ORIENTED_EDGE('',*,*,#114,.F.);
#153=ORIENTED_EDGE('',*,*,#98,.F.);
#154=ORIENTED_EDGE('',*,*,#115,.T.);
#155=ORIENTED_EDGE('',*,*,#114,.T.);
#156=ORIENTED_EDGE('',*,*,#115,.F.);
#157=ORIENTED_EDGE('',*,*,#97,.F.);
#158=CONICAL_SURFACE('',#177,18.8428328286357,0.0698131700797716);
#159=CONICAL_SURFACE('',#183,17.9509618943233,0.523598775598308);
#160=CONICAL_SURFACE('',#185,15.4509618943233,0.785398163397441);
#161=CONICAL_SURFACE('',#189,14.375,0.523598775598301);
#162=CONICAL_SURFACE('',#193,16.6519237886467,0.261799387799145);
#163=ADVANCED_FACE('',(#27),#158,.T.);
#164=ADVANCED_FACE('',(#28,#19),#23,.T.);
#165=ADVANCED_FACE('',(#29),#159,.F.);
#166=ADVANCED_FACE('',(#30),#160,.T.);
#167=ADVANCED_FACE('',(#31,#20),#24,.T.);
#168=ADVANCED_FACE('',(#32),#161,.F.);
#169=ADVANCED_FACE('',(#33),#18,.F.);
#170=ADVANCED_FACE('',(#34),#162,.F.);
#171=ADVANCED_FACE('',(#35,#21),#25,.T.);
#172=ADVANCED_FACE('',(#36),#17,.T.);
#173=ADVANCED_FACE('',(#37,#22),#26,.T.);
#174=ADVANCED_FACE('',(#38),#16,.F.);
#175=CLOSED_SHELL('',(#163,#164,#165,#166,#167,#168,#169,#170,#171,#172,
#173,#174));
#176=AXIS2_PLACEMENT_3D('',#263,#203,#204);
#177=AXIS2_PLACEMENT_3D('',#264,#205,#206);
#178=AXIS2_PLACEMENT_3D('',#266,#207,#208);
#179=AXIS2_PLACEMENT_3D('',#270,#210,#211);
#180=AXIS2_PLACEMENT_3D('',#271,#212,#213);
#181=AXIS2_PLACEMENT_3D('',#272,#214,#215);
#182=AXIS2_PLACEMENT_3D('',#274,#216,#217);
#183=AXIS2_PLACEMENT_3D('',#275,#218,#219);
#184=AXIS2_PLACEMENT_3D('',#278,#221,#222);
#185=AXIS2_PLACEMENT_3D('',#279,#223,#224);
#186=AXIS2_PLACEMENT_3D('',#281,#225,#226);
#187=AXIS2_PLACEMENT_3D('',#283,#228,#229);
#188=AXIS2_PLACEMENT_3D('',#285,#230,#231);
#189=AXIS2_PLACEMENT_3D('',#286,#232,#233);
#190=AXIS2_PLACEMENT_3D('',#289,#235,#236);
#191=AXIS2_PLACEMENT_3D('',#290,#237,#238);
#192=AXIS2_PLACEMENT_3D('',#293,#240,#241);
#193=AXIS2_PLACEMENT_3D('',#294,#242,#243);
#194=AXIS2_PLACEMENT_3D('',#297,#245,#246);
#195=AXIS2_PLACEMENT_3D('',#298,#247,#248);
#196=AXIS2_PLACEMENT_3D('',#300,#249,#250);
#197=AXIS2_PLACEMENT_3D('',#301,#251,#252);
#198=AXIS2_PLACEMENT_3D('',#303,#253,#254);
#199=AXIS2_PLACEMENT_3D('',#304,#255,#256);
#200=AXIS2_PLACEMENT_3D('',#305,#257,#258);
#201=AXIS2_PLACEMENT_3D('',#307,#259,#260);
#202=AXIS2_PLACEMENT_3D('',#335,#261,#262);
#203=DIRECTION('axis',(0.,0.,1.));
#204=DIRECTION('refdir',(1.,0.,0.));
#205=DIRECTION('center_axis',(0.,-6.12323399573677E-17,-1.));
#206=DIRECTION('ref_axis',(-1.,0.,0.));
#207=DIRECTION('center_axis',(0.,-6.12323399573677E-17,-1.));
#208=DIRECTION('ref_axis',(1.,0.,0.));
#209=DIRECTION('',(-0.0697564737441237,6.96258852838129E-17,0.997564050259824));
#210=DIRECTION('center_axis',(0.,-6.12323399573677E-17,-1.));
#211=DIRECTION('ref_axis',(1.,0.,0.));
#212=DIRECTION('center_axis',(0.,-6.12323399573677E-17,-1.));
#213=DIRECTION('ref_axis',(1.,0.,0.));
#214=DIRECTION('center_axis',(0.,-6.12323399573677E-17,-1.));
#215=DIRECTION('ref_axis',(0.,1.,-6.12323399573677E-17));
#216=DIRECTION('center_axis',(0.,-6.12323399573677E-17,-1.));
#217=DIRECTION('ref_axis',(1.,0.,0.));
#218=DIRECTION('center_axis',(0.,-6.12323399573677E-17,-1.));
#219=DIRECTION('ref_axis',(-1.,0.,0.));
#220=DIRECTION('',(-0.500000000000008,1.14261101893614E-16,0.866025403784434));
#221=DIRECTION('center_axis',(0.,-6.12323399573677E-17,-1.));
#222=DIRECTION('ref_axis',(1.,0.,0.));
#223=DIRECTION('center_axis',(0.,6.12323399573677E-17,1.));
#224=DIRECTION('ref_axis',(-1.,0.,0.));
#225=DIRECTION('center_axis',(0.,-6.12323399573677E-17,-1.));
#226=DIRECTION('ref_axis',(1.,0.,0.));
#227=DIRECTION('',(0.707106781186542,-4.32978028117737E-17,0.707106781186553));
#228=DIRECTION('center_axis',(0.,-6.12323399573677E-17,-1.));
#229=DIRECTION('ref_axis',(0.,1.,-6.12323399573677E-17));
#230=DIRECTION('center_axis',(0.,-6.12323399573677E-17,-1.));
#231=DIRECTION('ref_axis',(1.,0.,0.));
#232=DIRECTION('center_axis',(0.,6.12323399573677E-17,1.));
#233=DIRECTION('ref_axis',(-1.,0.,0.));
#234=DIRECTION('',(0.500000000000002,-8.20357802112257E-18,0.866025403784438));
#235=DIRECTION('center_axis',(0.,-6.12323399573677E-17,-1.));
#236=DIRECTION('ref_axis',(1.,0.,0.));
#237=DIRECTION('center_axis',(0.,-6.12323399573677E-17,-1.));
#238=DIRECTION('ref_axis',(-1.,0.,0.));
#239=DIRECTION('',(0.,6.12323399573677E-17,1.));
#240=DIRECTION('center_axis',(0.,-6.12323399573677E-17,-1.));
#241=DIRECTION('ref_axis',(1.,0.,0.));
#242=DIRECTION('center_axis',(0.,6.12323399573677E-17,1.));
#243=DIRECTION('ref_axis',(-1.,0.,0.));
#244=DIRECTION('',(0.258819045102516,2.74497070546165E-17,0.96592582628907));
#245=DIRECTION('center_axis',(0.,-6.12323399573677E-17,-1.));
#246=DIRECTION('ref_axis',(1.,0.,0.));
#247=DIRECTION('center_axis',(0.,6.12323399573677E-17,1.));
#248=DIRECTION('ref_axis',(0.,-1.,6.12323399573677E-17));
#249=DIRECTION('center_axis',(0.,-6.12323399573677E-17,-1.));
#250=DIRECTION('ref_axis',(1.,0.,0.));
#251=DIRECTION('center_axis',(0.,-6.12323399573677E-17,-1.));
#252=DIRECTION('ref_axis',(0.,1.,-7.0112250441306E-17));
#253=DIRECTION('center_axis',(0.,-6.12323399573677E-17,-1.));
#254=DIRECTION('ref_axis',(1.,0.,0.));
#255=DIRECTION('center_axis',(-1.,0.,0.));
#256=DIRECTION('ref_axis',(0.,-1.,6.12323399573677E-17));
#257=DIRECTION('center_axis',(0.,-6.12323399573677E-17,-1.));
#258=DIRECTION('ref_axis',(0.,1.,-6.12323399573677E-17));
#259=DIRECTION('center_axis',(0.,-6.12323399573677E-17,-1.));
#260=DIRECTION('ref_axis',(1.,0.,0.));
#261=DIRECTION('center_axis',(-1.,0.,0.));
#262=DIRECTION('ref_axis',(0.,-1.,6.12323399573677E-17));
#263=CARTESIAN_POINT('',(0.,0.,0.));
#264=CARTESIAN_POINT('Origin',(301.788342476053,89.3698016888255,-2.25240473580841));
#265=CARTESIAN_POINT('',(320.788342476053,89.3698016888255,-4.50000000000006));
#266=CARTESIAN_POINT('Origin',(301.788342476053,89.3698016888255,-4.50000000000006));
#267=CARTESIAN_POINT('',(320.474008133325,89.3698016888255,-0.00480947161676681));
#268=CARTESIAN_POINT('',(320.631175304689,89.3698016888255,-2.25240473580841));
#269=CARTESIAN_POINT('',(301.788342476053,70.684136031554,-0.00480947161676681));
#270=CARTESIAN_POINT('Origin',(301.788342476053,89.3698016888255,-0.00480947161676681));
#271=CARTESIAN_POINT('Origin',(301.788342476053,89.3698016888255,-0.00480947161676681));
#272=CARTESIAN_POINT('Origin',(283.288342476053,89.3698016888255,-4.50000000000006));
#273=CARTESIAN_POINT('',(320.288342476053,89.3698016888255,-4.50000000000006));
#274=CARTESIAN_POINT('Origin',(301.788342476053,89.3698016888255,-4.50000000000006));
#275=CARTESIAN_POINT('Origin',(301.788342476053,89.3698016888255,-3.54903810567669));
#276=CARTESIAN_POINT('',(319.1902662647,89.3698016888255,-2.59807621135332));
#277=CARTESIAN_POINT('',(319.739304370376,89.3698016888255,-3.54903810567669));
#278=CARTESIAN_POINT('Origin',(301.788342476053,89.3698016888255,-2.59807621135332));
#279=CARTESIAN_POINT('Origin',(301.788342476053,89.3698016888255,-4.54903810567666));
#280=CARTESIAN_POINT('',(315.288342476053,89.3698016888255,-6.5));
#281=CARTESIAN_POINT('Origin',(301.788342476053,89.3698016888255,-6.5));
#282=CARTESIAN_POINT('',(317.239304370376,89.3698016888255,-4.54903810567666));
#283=CARTESIAN_POINT('Origin',(289.288342476053,89.3698016888255,-6.5));
#284=CARTESIAN_POINT('',(314.288342476053,89.3698016888255,-6.5));
#285=CARTESIAN_POINT('Origin',(301.788342476053,89.3698016888255,-6.5));
#286=CARTESIAN_POINT('Origin',(301.788342476053,89.3698016888255,-3.25240473580837));
#287=CARTESIAN_POINT('',(318.038342476053,89.3698016888255,-0.00480947161673839));
#288=CARTESIAN_POINT('',(316.163342476053,89.3698016888255,-3.25240473580837));
#289=CARTESIAN_POINT('Origin',(301.788342476053,89.3698016888255,-0.00480947161673839));
#290=CARTESIAN_POINT('Origin',(301.788342476053,89.3698016888255,1.7475952641916));
#291=CARTESIAN_POINT('',(318.038342476053,89.3698016888255,3.49999999999994));
#292=CARTESIAN_POINT('',(318.038342476053,89.3698016888255,1.7475952641916));
#293=CARTESIAN_POINT('Origin',(301.788342476053,89.3698016888255,3.49999999999994));
#294=CARTESIAN_POINT('Origin',(301.788342476053,89.3698016888255,4.99999999999997));
#295=CARTESIAN_POINT('',(318.842190053347,89.3698016888255,6.5));
#296=CARTESIAN_POINT('',(318.4402662647,89.3698016888255,4.99999999999997));
#297=CARTESIAN_POINT('Origin',(301.788342476053,89.3698016888255,6.5));
#298=CARTESIAN_POINT('Origin',(284.288342476053,89.3698016888255,6.49999999999994));
#299=CARTESIAN_POINT('',(301.788342476053,71.8698016888258,6.49999999999993));
#300=CARTESIAN_POINT('Origin',(301.788342476053,89.3698016888255,6.49999999999993));
#301=CARTESIAN_POINT('Origin',(301.788342476053,89.3698016888255,3.37596182310854));
#302=CARTESIAN_POINT('',(301.788342476053,70.3698016888255,3.49999999999994));
#303=CARTESIAN_POINT('Origin',(301.788342476053,89.3698016888255,3.49999999999994));
#304=CARTESIAN_POINT('Origin',(301.788342476053,74.3678780426078,3.37596182310854));
#305=CARTESIAN_POINT('Origin',(284.538342476053,89.3698016888255,3.49999999999994));
#306=CARTESIAN_POINT('',(301.788342476053,72.1198016888255,3.49999999999994));
#307=CARTESIAN_POINT('Origin',(301.788342476053,89.3698016888255,3.49999999999994));
#308=CARTESIAN_POINT('Ctrl Pts',(301.788342476053,72.1198016888255,3.49999999999994));
#309=CARTESIAN_POINT('Ctrl Pts',(284.538342476053,72.1198016888255,3.49999999999994));
#310=CARTESIAN_POINT('Ctrl Pts',(284.538342476053,89.3698016888255,3.49999999999994));
#311=CARTESIAN_POINT('Ctrl Pts',(284.538342476053,106.619801688826,3.49999999999994));
#312=CARTESIAN_POINT('Ctrl Pts',(301.788342476053,106.619801688826,3.49999999999994));
#313=CARTESIAN_POINT('Ctrl Pts',(319.038342476053,106.619801688826,3.49999999999994));
#314=CARTESIAN_POINT('Ctrl Pts',(319.038342476053,89.3698016888255,3.49999999999994));
#315=CARTESIAN_POINT('Ctrl Pts',(319.038342476053,72.1198016888255,3.49999999999994));
#316=CARTESIAN_POINT('Ctrl Pts',(301.788342476053,72.1198016888255,3.49999999999994));
#317=CARTESIAN_POINT('Ctrl Pts',(301.788342476053,71.0639955007757,1.88603838046163));
#318=CARTESIAN_POINT('Ctrl Pts',(283.482536288003,71.0639955007758,1.88603838046163));
#319=CARTESIAN_POINT('Ctrl Pts',(283.482536288003,89.3698016888255,1.88603838046163));
#320=CARTESIAN_POINT('Ctrl Pts',(283.482536288003,107.675607876875,1.88603838046163));
#321=CARTESIAN_POINT('Ctrl Pts',(301.788342476053,107.675607876875,1.88603838046163));
#322=CARTESIAN_POINT('Ctrl Pts',(320.094148664103,107.675607876875,1.88603838046163));
#323=CARTESIAN_POINT('Ctrl Pts',(320.094148664103,89.3698016888255,1.88603838046163));
#324=CARTESIAN_POINT('Ctrl Pts',(320.094148664103,71.0639955007758,1.88603838046163));
#325=CARTESIAN_POINT('Ctrl Pts',(301.788342476053,71.0639955007757,1.88603838046163));
#326=CARTESIAN_POINT('Ctrl Pts',(301.788342476053,70.684136031554,-0.00480947161676681));
#327=CARTESIAN_POINT('Ctrl Pts',(283.102676818782,70.684136031554,-0.00480947161676681));
#328=CARTESIAN_POINT('Ctrl Pts',(283.102676818782,89.3698016888255,-0.00480947161676681));
#329=CARTESIAN_POINT('Ctrl Pts',(283.102676818782,108.055467346097,-0.00480947161676681));
#330=CARTESIAN_POINT('Ctrl Pts',(301.788342476053,108.055467346097,-0.00480947161676681));
#331=CARTESIAN_POINT('Ctrl Pts',(320.474008133325,108.055467346097,-0.00480947161676681));
#332=CARTESIAN_POINT('Ctrl Pts',(320.474008133325,89.3698016888255,-0.00480947161676681));
#333=CARTESIAN_POINT('Ctrl Pts',(320.474008133325,70.684136031554,-0.00480947161676681));
#334=CARTESIAN_POINT('Ctrl Pts',(301.788342476053,70.684136031554,-0.00480947161676681));
#335=CARTESIAN_POINT('Origin',(301.788342476053,80.4882541325203,-1.97439528145692));
#336=UNCERTAINTY_MEASURE_WITH_UNIT(LENGTH_MEASURE(0.001),#340,
'DISTANCE_ACCURACY_VALUE',
'Maximum model space distance between geometric entities at asserted c
onnectivities');
#337=UNCERTAINTY_MEASURE_WITH_UNIT(LENGTH_MEASURE(0.001),#340,
'DISTANCE_ACCURACY_VALUE',
'Maximum model space distance between geometric entities at asserted c
onnectivities');
#338=(
GEOMETRIC_REPRESENTATION_CONTEXT(3)
GLOBAL_UNCERTAINTY_ASSIGNED_CONTEXT((#336))
GLOBAL_UNIT_ASSIGNED_CONTEXT((#340,#341,#342))
REPRESENTATION_CONTEXT('','3D')
);
#339=(
GEOMETRIC_REPRESENTATION_CONTEXT(3)
GLOBAL_UNCERTAINTY_ASSIGNED_CONTEXT((#337))
GLOBAL_UNIT_ASSIGNED_CONTEXT((#340,#341,#342))
REPRESENTATION_CONTEXT('','3D')
);
#340=(
LENGTH_UNIT()
NAMED_UNIT(*)
SI_UNIT(.CENTI.,.METRE.)
);
#341=(
NAMED_UNIT(*)
PLANE_ANGLE_UNIT()
SI_UNIT($,.RADIAN.)
);
#342=(
NAMED_UNIT(*)
SI_UNIT($,.STERADIAN.)
SOLID_ANGLE_UNIT()
);
#343=SHAPE_DEFINITION_REPRESENTATION(#344,#345);
#344=PRODUCT_DEFINITION_SHAPE('',$,#347);
#345=SHAPE_REPRESENTATION('',(#176),#338);
#346=PRODUCT_DEFINITION_CONTEXT('part definition',#351,'design');
#347=PRODUCT_DEFINITION('Product','Product',#348,#346);
#348=PRODUCT_DEFINITION_FORMATION('',$,#353);
#349=PRODUCT_RELATED_PRODUCT_CATEGORY('Product','Product',(#353));
#350=APPLICATION_PROTOCOL_DEFINITION('international standard',
'automotive_design',2009,#351);
#351=APPLICATION_CONTEXT(
'Core Data for Automotive Mechanical Design Process');
#352=PRODUCT_CONTEXT('part definition',#351,'mechanical');
#353=PRODUCT('Product','Product',$,(#352));
#354=PRESENTATION_STYLE_ASSIGNMENT((#355));
#355=SURFACE_STYLE_USAGE(.BOTH.,#356);
#356=SURFACE_SIDE_STYLE('',(#357));
#357=SURFACE_STYLE_FILL_AREA(#358);
#358=FILL_AREA_STYLE('',(#359));
#359=FILL_AREA_STYLE_COLOUR('',#360);
#360=COLOUR_RGB('',0.329411764705882,0.329411764705882,0.329411764705882);
ENDSEC;
END-ISO-10303-21;
