ISO-10303-21;
HEADER;
/* Generated by software containing ST-Developer
 * from STEP Tools, Inc. (www.steptools.com) 
 */

FILE_DESCRIPTION(
/* description */ (''),
/* implementation_level */ '2;1');

FILE_NAME(
/* name */ '00710.100X_3D.stp',
/* time_stamp */ '2024-12-11T12:59:59+01:00',
/* author */ ('CAD'),
/* organization */ (''),
/* preprocessor_version */ 'ST-DEVELOPER v20',
/* originating_system */ 'AutoCAD Mechanical',
/* authorisation */ '');

FILE_SCHEMA (('AUTOMOTIVE_DESIGN { 1 0 10303 214 3 1 1 }'));
ENDSEC;

DATA;
#10=MECHANICAL_DESIGN_GEOMETRIC_PRESENTATION_REPRESENTATION('',(#14),#358);
#11=PRESENTATION_LAYER_ASSIGNMENT('4','ROHR',(#15));
#12=SHAPE_REPRESENTATION_RELATIONSHIP('SRR','None',#364,#13);
#13=ADVANCED_BREP_SHAPE_REPRESENTATION('',(#15),#357);
#14=STYLED_ITEM('',(#373),#15);
#15=MANIFOLD_SOLID_BREP('700',#194);
#16=TOROIDAL_SURFACE('',#206,63.0000000000009,14.0000000000009);
#17=TOROIDAL_SURFACE('',#209,37.0000000000005,15.9999999999995);
#18=TOROIDAL_SURFACE('',#220,37.0000000000001,17.9999999999999);
#19=TOROIDAL_SURFACE('',#223,63.0000000000003,12.0000000000003);
#20=CYLINDRICAL_SURFACE('',#203,49.);
#21=CYLINDRICAL_SURFACE('',#213,53.);
#22=CYLINDRICAL_SURFACE('',#217,55.);
#23=CYLINDRICAL_SURFACE('',#227,51.);
#24=FACE_BOUND('',#42,.T.);
#25=FACE_BOUND('',#49,.T.);
#26=PLANE('',#199);
#27=PLANE('',#215);
#28=FACE_OUTER_BOUND('',#40,.T.);
#29=FACE_OUTER_BOUND('',#41,.T.);
#30=FACE_OUTER_BOUND('',#43,.T.);
#31=FACE_OUTER_BOUND('',#44,.T.);
#32=FACE_OUTER_BOUND('',#45,.T.);
#33=FACE_OUTER_BOUND('',#46,.T.);
#34=FACE_OUTER_BOUND('',#47,.T.);
#35=FACE_OUTER_BOUND('',#48,.T.);
#36=FACE_OUTER_BOUND('',#50,.T.);
#37=FACE_OUTER_BOUND('',#51,.T.);
#38=FACE_OUTER_BOUND('',#52,.T.);
#39=FACE_OUTER_BOUND('',#53,.T.);
#40=EDGE_LOOP('',(#128,#129,#130,#131));
#41=EDGE_LOOP('',(#132));
#42=EDGE_LOOP('',(#133));
#43=EDGE_LOOP('',(#134,#135,#136,#137));
#44=EDGE_LOOP('',(#138,#139,#140,#141,#142));
#45=EDGE_LOOP('',(#143,#144,#145,#146,#147));
#46=EDGE_LOOP('',(#148,#149,#150,#151,#152));
#47=EDGE_LOOP('',(#153,#154,#155,#156,#157));
#48=EDGE_LOOP('',(#158));
#49=EDGE_LOOP('',(#159));
#50=EDGE_LOOP('',(#160,#161,#162,#163,#164));
#51=EDGE_LOOP('',(#165,#166,#167,#168,#169));
#52=EDGE_LOOP('',(#170,#171,#172,#173,#174));
#53=EDGE_LOOP('',(#175,#176,#177,#178,#179));
#54=LINE('',#305,#60);
#55=LINE('',#312,#61);
#56=LINE('',#316,#62);
#57=LINE('',#332,#63);
#58=LINE('',#342,#64);
#59=LINE('',#354,#65);
#60=VECTOR('',#234,50.4750680188445);
#61=VECTOR('',#243,48.4621613345833);
#62=VECTOR('',#248,49.);
#63=VECTOR('',#269,53.);
#64=VECTOR('',#282,55.);
#65=VECTOR('',#299,51.);
#66=CIRCLE('',#197,49.9501360376889);
#67=CIRCLE('',#198,51.);
#68=CIRCLE('',#200,47.9243226691665);
#69=CIRCLE('',#202,49.);
#70=CIRCLE('',#204,49.);
#71=CIRCLE('',#205,49.);
#72=CIRCLE('',#207,50.8666666666667);
#73=CIRCLE('',#208,14.0000000000009);
#74=CIRCLE('',#210,15.9999999999995);
#75=CIRCLE('',#211,53.);
#76=CIRCLE('',#212,53.);
#77=CIRCLE('',#214,53.);
#78=CIRCLE('',#216,55.);
#79=CIRCLE('',#218,55.);
#80=CIRCLE('',#219,55.);
#81=CIRCLE('',#221,52.5999999999999);
#82=CIRCLE('',#222,17.9999999999999);
#83=CIRCLE('',#224,12.0000000000003);
#84=CIRCLE('',#225,51.);
#85=CIRCLE('',#226,51.);
#86=VERTEX_POINT('',#302);
#87=VERTEX_POINT('',#304);
#88=VERTEX_POINT('',#308);
#89=VERTEX_POINT('',#311);
#90=VERTEX_POINT('',#315);
#91=VERTEX_POINT('',#317);
#92=VERTEX_POINT('',#321);
#93=VERTEX_POINT('',#325);
#94=VERTEX_POINT('',#327);
#95=VERTEX_POINT('',#331);
#96=VERTEX_POINT('',#335);
#97=VERTEX_POINT('',#338);
#98=VERTEX_POINT('',#339);
#99=VERTEX_POINT('',#344);
#100=VERTEX_POINT('',#348);
#101=VERTEX_POINT('',#350);
#102=EDGE_CURVE('',#86,#86,#66,.T.);
#103=EDGE_CURVE('',#86,#87,#54,.T.);
#104=EDGE_CURVE('',#87,#87,#67,.T.);
#105=EDGE_CURVE('',#88,#88,#68,.T.);
#106=EDGE_CURVE('',#88,#89,#55,.T.);
#107=EDGE_CURVE('',#89,#89,#69,.T.);
#108=EDGE_CURVE('',#89,#90,#56,.T.);
#109=EDGE_CURVE('',#91,#90,#70,.T.);
#110=EDGE_CURVE('',#90,#91,#71,.T.);
#111=EDGE_CURVE('',#92,#92,#72,.T.);
#112=EDGE_CURVE('',#92,#91,#73,.T.);
#113=EDGE_CURVE('',#92,#93,#74,.T.);
#114=EDGE_CURVE('',#94,#93,#75,.T.);
#115=EDGE_CURVE('',#93,#94,#76,.T.);
#116=EDGE_CURVE('',#94,#95,#57,.T.);
#117=EDGE_CURVE('',#95,#95,#77,.T.);
#118=EDGE_CURVE('',#96,#96,#78,.T.);
#119=EDGE_CURVE('',#97,#98,#79,.T.);
#120=EDGE_CURVE('',#98,#97,#80,.T.);
#121=EDGE_CURVE('',#98,#96,#58,.T.);
#122=EDGE_CURVE('',#99,#99,#81,.T.);
#123=EDGE_CURVE('',#99,#97,#82,.T.);
#124=EDGE_CURVE('',#99,#100,#83,.T.);
#125=EDGE_CURVE('',#101,#100,#84,.T.);
#126=EDGE_CURVE('',#100,#101,#85,.T.);
#127=EDGE_CURVE('',#87,#101,#59,.T.);
#128=ORIENTED_EDGE('',*,*,#102,.F.);
#129=ORIENTED_EDGE('',*,*,#103,.T.);
#130=ORIENTED_EDGE('',*,*,#104,.T.);
#131=ORIENTED_EDGE('',*,*,#103,.F.);
#132=ORIENTED_EDGE('',*,*,#102,.T.);
#133=ORIENTED_EDGE('',*,*,#105,.F.);
#134=ORIENTED_EDGE('',*,*,#105,.T.);
#135=ORIENTED_EDGE('',*,*,#106,.T.);
#136=ORIENTED_EDGE('',*,*,#107,.F.);
#137=ORIENTED_EDGE('',*,*,#106,.F.);
#138=ORIENTED_EDGE('',*,*,#107,.T.);
#139=ORIENTED_EDGE('',*,*,#108,.T.);
#140=ORIENTED_EDGE('',*,*,#109,.F.);
#141=ORIENTED_EDGE('',*,*,#110,.F.);
#142=ORIENTED_EDGE('',*,*,#108,.F.);
#143=ORIENTED_EDGE('',*,*,#111,.F.);
#144=ORIENTED_EDGE('',*,*,#112,.T.);
#145=ORIENTED_EDGE('',*,*,#109,.T.);
#146=ORIENTED_EDGE('',*,*,#110,.T.);
#147=ORIENTED_EDGE('',*,*,#112,.F.);
#148=ORIENTED_EDGE('',*,*,#111,.T.);
#149=ORIENTED_EDGE('',*,*,#113,.T.);
#150=ORIENTED_EDGE('',*,*,#114,.F.);
#151=ORIENTED_EDGE('',*,*,#115,.F.);
#152=ORIENTED_EDGE('',*,*,#113,.F.);
#153=ORIENTED_EDGE('',*,*,#115,.T.);
#154=ORIENTED_EDGE('',*,*,#116,.T.);
#155=ORIENTED_EDGE('',*,*,#117,.F.);
#156=ORIENTED_EDGE('',*,*,#116,.F.);
#157=ORIENTED_EDGE('',*,*,#114,.T.);
#158=ORIENTED_EDGE('',*,*,#118,.F.);
#159=ORIENTED_EDGE('',*,*,#117,.T.);
#160=ORIENTED_EDGE('',*,*,#119,.F.);
#161=ORIENTED_EDGE('',*,*,#120,.F.);
#162=ORIENTED_EDGE('',*,*,#121,.T.);
#163=ORIENTED_EDGE('',*,*,#118,.T.);
#164=ORIENTED_EDGE('',*,*,#121,.F.);
#165=ORIENTED_EDGE('',*,*,#122,.F.);
#166=ORIENTED_EDGE('',*,*,#123,.T.);
#167=ORIENTED_EDGE('',*,*,#119,.T.);
#168=ORIENTED_EDGE('',*,*,#120,.T.);
#169=ORIENTED_EDGE('',*,*,#123,.F.);
#170=ORIENTED_EDGE('',*,*,#122,.T.);
#171=ORIENTED_EDGE('',*,*,#124,.T.);
#172=ORIENTED_EDGE('',*,*,#125,.F.);
#173=ORIENTED_EDGE('',*,*,#126,.F.);
#174=ORIENTED_EDGE('',*,*,#124,.F.);
#175=ORIENTED_EDGE('',*,*,#104,.F.);
#176=ORIENTED_EDGE('',*,*,#127,.T.);
#177=ORIENTED_EDGE('',*,*,#125,.T.);
#178=ORIENTED_EDGE('',*,*,#126,.T.);
#179=ORIENTED_EDGE('',*,*,#127,.F.);
#180=CONICAL_SURFACE('',#196,50.4750680188445,0.159808494370839);
#181=CONICAL_SURFACE('',#201,48.4621613345833,0.159808494370832);
#182=ADVANCED_FACE('',(#28),#180,.T.);
#183=ADVANCED_FACE('',(#29,#24),#26,.T.);
#184=ADVANCED_FACE('',(#30),#181,.F.);
#185=ADVANCED_FACE('',(#31),#20,.F.);
#186=ADVANCED_FACE('',(#32),#16,.T.);
#187=ADVANCED_FACE('',(#33),#17,.F.);
#188=ADVANCED_FACE('',(#34),#21,.F.);
#189=ADVANCED_FACE('',(#35,#25),#27,.T.);
#190=ADVANCED_FACE('',(#36),#22,.T.);
#191=ADVANCED_FACE('',(#37),#18,.T.);
#192=ADVANCED_FACE('',(#38),#19,.F.);
#193=ADVANCED_FACE('',(#39),#23,.T.);
#194=CLOSED_SHELL('',(#182,#183,#184,#185,#186,#187,#188,#189,#190,#191,
#192,#193));
#195=AXIS2_PLACEMENT_3D('',#300,#228,#229);
#196=AXIS2_PLACEMENT_3D('',#301,#230,#231);
#197=AXIS2_PLACEMENT_3D('',#303,#232,#233);
#198=AXIS2_PLACEMENT_3D('',#306,#235,#236);
#199=AXIS2_PLACEMENT_3D('',#307,#237,#238);
#200=AXIS2_PLACEMENT_3D('',#309,#239,#240);
#201=AXIS2_PLACEMENT_3D('',#310,#241,#242);
#202=AXIS2_PLACEMENT_3D('',#313,#244,#245);
#203=AXIS2_PLACEMENT_3D('',#314,#246,#247);
#204=AXIS2_PLACEMENT_3D('',#318,#249,#250);
#205=AXIS2_PLACEMENT_3D('',#319,#251,#252);
#206=AXIS2_PLACEMENT_3D('',#320,#253,#254);
#207=AXIS2_PLACEMENT_3D('',#322,#255,#256);
#208=AXIS2_PLACEMENT_3D('',#323,#257,#258);
#209=AXIS2_PLACEMENT_3D('',#324,#259,#260);
#210=AXIS2_PLACEMENT_3D('',#326,#261,#262);
#211=AXIS2_PLACEMENT_3D('',#328,#263,#264);
#212=AXIS2_PLACEMENT_3D('',#329,#265,#266);
#213=AXIS2_PLACEMENT_3D('',#330,#267,#268);
#214=AXIS2_PLACEMENT_3D('',#333,#270,#271);
#215=AXIS2_PLACEMENT_3D('',#334,#272,#273);
#216=AXIS2_PLACEMENT_3D('',#336,#274,#275);
#217=AXIS2_PLACEMENT_3D('',#337,#276,#277);
#218=AXIS2_PLACEMENT_3D('',#340,#278,#279);
#219=AXIS2_PLACEMENT_3D('',#341,#280,#281);
#220=AXIS2_PLACEMENT_3D('',#343,#283,#284);
#221=AXIS2_PLACEMENT_3D('',#345,#285,#286);
#222=AXIS2_PLACEMENT_3D('',#346,#287,#288);
#223=AXIS2_PLACEMENT_3D('',#347,#289,#290);
#224=AXIS2_PLACEMENT_3D('',#349,#291,#292);
#225=AXIS2_PLACEMENT_3D('',#351,#293,#294);
#226=AXIS2_PLACEMENT_3D('',#352,#295,#296);
#227=AXIS2_PLACEMENT_3D('',#353,#297,#298);
#228=DIRECTION('axis',(0.,0.,1.));
#229=DIRECTION('refdir',(1.,0.,0.));
#230=DIRECTION('center_axis',(3.20244613300327E-15,6.12323399573677E-17,
1.));
#231=DIRECTION('ref_axis',(-1.,1.96213425501355E-31,3.204408416173E-15));
#232=DIRECTION('center_axis',(-3.20244613300327E-15,-6.12323399573677E-17,
-1.));
#233=DIRECTION('ref_axis',(1.,-1.96093270311214E-31,-3.20244613300327E-15));
#234=DIRECTION('',(0.159129144111927,4.09644040426793E-17,0.987257775605847));
#235=DIRECTION('center_axis',(-3.20244613300327E-15,-6.12323399573677E-17,
-1.));
#236=DIRECTION('ref_axis',(1.,-1.96093270311214E-31,-3.20244613300327E-15));
#237=DIRECTION('center_axis',(-3.20244613300327E-15,-6.12323399573677E-17,
-1.));
#238=DIRECTION('ref_axis',(0.,1.,-6.12323399573677E-17));
#239=DIRECTION('center_axis',(-3.20244613300327E-15,-6.12323399573677E-17,
-1.));
#240=DIRECTION('ref_axis',(1.,-1.96093270311214E-31,-3.20244613300327E-15));
#241=DIRECTION('center_axis',(3.20244613300327E-15,6.12323399573677E-17,
1.));
#242=DIRECTION('ref_axis',(-1.,1.96213425501355E-31,3.204408416173E-15));
#243=DIRECTION('',(0.15912914411192,4.09644040426802E-17,0.987257775605848));
#244=DIRECTION('center_axis',(-3.20244613300327E-15,-6.12323399573677E-17,
-1.));
#245=DIRECTION('ref_axis',(1.,-1.96093270311214E-31,-3.20244613300327E-15));
#246=DIRECTION('center_axis',(-3.20244613300327E-15,-6.12323399573677E-17,
-1.));
#247=DIRECTION('ref_axis',(-1.,1.96213425501355E-31,3.204408416173E-15));
#248=DIRECTION('',(3.20244613300327E-15,6.12323399573677E-17,1.));
#249=DIRECTION('center_axis',(-3.20244613300327E-15,-6.12323399573677E-17,
-1.));
#250=DIRECTION('ref_axis',(1.,-1.96093270311214E-31,-3.20244613300327E-15));
#251=DIRECTION('center_axis',(-3.20244613300327E-15,-6.12323399573677E-17,
-1.));
#252=DIRECTION('ref_axis',(1.,-1.96093270311214E-31,-3.20244613300327E-15));
#253=DIRECTION('center_axis',(-3.20244613300327E-15,-6.12323399573677E-17,
-1.));
#254=DIRECTION('ref_axis',(0.,1.,0.));
#255=DIRECTION('center_axis',(-3.20244613300327E-15,-6.12323399573677E-17,
-1.));
#256=DIRECTION('ref_axis',(1.,-1.96093270311214E-31,-3.20244613300327E-15));
#257=DIRECTION('center_axis',(-1.,1.96093270311214E-31,3.20244613300327E-15));
#258=DIRECTION('ref_axis',(0.,-1.,6.12323399573677E-17));
#259=DIRECTION('center_axis',(-3.20244613300327E-15,-6.12323399573677E-17,
-1.));
#260=DIRECTION('ref_axis',(0.,1.,0.));
#261=DIRECTION('center_axis',(-1.,1.96093270311214E-31,3.20244613300327E-15));
#262=DIRECTION('ref_axis',(0.,-1.,6.12323399573677E-17));
#263=DIRECTION('center_axis',(-3.20244613300327E-15,-6.12323399573677E-17,
-1.));
#264=DIRECTION('ref_axis',(1.,-1.96093270311214E-31,-3.20244613300327E-15));
#265=DIRECTION('center_axis',(-3.20244613300327E-15,-6.12323399573677E-17,
-1.));
#266=DIRECTION('ref_axis',(1.,-1.96093270311214E-31,-3.20244613300327E-15));
#267=DIRECTION('center_axis',(-3.20244613300327E-15,-6.12323399573677E-17,
-1.));
#268=DIRECTION('ref_axis',(-1.,1.96213425501355E-31,3.204408416173E-15));
#269=DIRECTION('',(3.20244613300327E-15,6.12323399573677E-17,1.));
#270=DIRECTION('center_axis',(-3.20244613300327E-15,-6.12323399573677E-17,
-1.));
#271=DIRECTION('ref_axis',(1.,-1.96093270311214E-31,-3.20244613300327E-15));
#272=DIRECTION('center_axis',(3.20244613300327E-15,6.12323399573677E-17,
1.));
#273=DIRECTION('ref_axis',(0.,-1.,6.12323399573677E-17));
#274=DIRECTION('center_axis',(-3.20244613300327E-15,-6.12323399573677E-17,
-1.));
#275=DIRECTION('ref_axis',(1.,-1.96093270311214E-31,-3.20244613300327E-15));
#276=DIRECTION('center_axis',(-3.20244613300327E-15,-6.12323399573677E-17,
-1.));
#277=DIRECTION('ref_axis',(-1.,1.96213425501355E-31,3.204408416173E-15));
#278=DIRECTION('center_axis',(-3.20244613300327E-15,-6.12323399573677E-17,
-1.));
#279=DIRECTION('ref_axis',(1.,-1.96093270311214E-31,-3.20244613300327E-15));
#280=DIRECTION('center_axis',(-3.20244613300327E-15,-6.12323399573677E-17,
-1.));
#281=DIRECTION('ref_axis',(1.,-1.96093270311214E-31,-3.20244613300327E-15));
#282=DIRECTION('',(3.20244613300327E-15,6.12323399573677E-17,1.));
#283=DIRECTION('center_axis',(-3.20244613300327E-15,-6.12323399573677E-17,
-1.));
#284=DIRECTION('ref_axis',(0.,1.,0.));
#285=DIRECTION('center_axis',(-3.20244613300327E-15,-6.12323399573677E-17,
-1.));
#286=DIRECTION('ref_axis',(1.,-1.96093270311214E-31,-3.20244613300327E-15));
#287=DIRECTION('center_axis',(-1.,1.96093270311214E-31,3.20244613300327E-15));
#288=DIRECTION('ref_axis',(0.,-1.,6.12323399573677E-17));
#289=DIRECTION('center_axis',(-3.20244613300327E-15,-6.12323399573677E-17,
-1.));
#290=DIRECTION('ref_axis',(0.,1.,0.));
#291=DIRECTION('center_axis',(-1.,1.96093270311214E-31,3.20244613300327E-15));
#292=DIRECTION('ref_axis',(0.,-1.,6.12323399573677E-17));
#293=DIRECTION('center_axis',(-3.20244613300327E-15,-6.12323399573677E-17,
-1.));
#294=DIRECTION('ref_axis',(1.,-1.96093270311214E-31,-3.20244613300327E-15));
#295=DIRECTION('center_axis',(-3.20244613300327E-15,-6.12323399573677E-17,
-1.));
#296=DIRECTION('ref_axis',(1.,-1.96093270311214E-31,-3.20244613300327E-15));
#297=DIRECTION('center_axis',(-3.20244613300327E-15,-6.12323399573677E-17,
-1.));
#298=DIRECTION('ref_axis',(-1.,1.96213425501355E-31,3.204408416173E-15));
#299=DIRECTION('',(3.20244613300327E-15,6.12323399573677E-17,1.));
#300=CARTESIAN_POINT('',(0.,0.,0.));
#301=CARTESIAN_POINT('Origin',(5.6843418860808E-14,8.49466145930918E-15,
3.25674585225875));
#302=CARTESIAN_POINT('',(49.950136037689,2.17811586857586E-15,-1.70530256582424E-13));
#303=CARTESIAN_POINT('Origin',(0.,8.29524329012893E-15,0.));
#304=CARTESIAN_POINT('',(51.0000000000001,2.44838095283792E-15,6.51349170451732));
#305=CARTESIAN_POINT('',(50.4750680188445,2.31324841070689E-15,3.25674585225858));
#306=CARTESIAN_POINT('Origin',(5.6843418860808E-14,8.69407962848944E-15,
6.51349170451749));
#307=CARTESIAN_POINT('Origin',(-47.9243226691665,8.29524329012894E-15,1.4210854715202E-13));
#308=CARTESIAN_POINT('',(47.9243226691666,2.42620645431894E-15,-1.70530256582424E-13));
#309=CARTESIAN_POINT('Origin',(0.,8.29524329012893E-15,0.));
#310=CARTESIAN_POINT('Origin',(5.6843418860808E-14,8.49956462283885E-15,
3.33682058944964));
#311=CARTESIAN_POINT('',(49.0000000000001,2.70311663972674E-15,6.67364117889923));
#312=CARTESIAN_POINT('',(48.4621613345834,2.56466154702284E-15,3.3368205894495));
#313=CARTESIAN_POINT('Origin',(5.6843418860808E-14,8.70388595554878E-15,
6.67364117889935));
#314=CARTESIAN_POINT('Origin',(1.70530256582424E-13,1.08580313866559E-14,
41.8535058159018));
#315=CARTESIAN_POINT('',(49.0000000000003,7.01140750194096E-15,77.0333704529041));
#316=CARTESIAN_POINT('',(49.0000000000002,4.85726207083385E-15,41.8535058159016));
#317=CARTESIAN_POINT('',(2.8421709430404E-13,-49.,77.0333704529043));
#318=CARTESIAN_POINT('Origin',(2.8421709430404E-13,1.3012176817763E-14,
77.0333704529043));
#319=CARTESIAN_POINT('Origin',(2.8421709430404E-13,1.3012176817763E-14,
77.0333704529043));
#320=CARTESIAN_POINT('Origin',(2.8421709430404E-13,1.3012176817763E-14,
77.033370452904));
#321=CARTESIAN_POINT('',(2.8421709430404E-13,-50.8666666666667,84.0177975748824));
#322=CARTESIAN_POINT('Origin',(2.8421709430404E-13,1.34398496337034E-14,
84.0177975748824));
#323=CARTESIAN_POINT('Origin',(2.8421709430404E-13,-63.0000000000009,77.033370452904));
#324=CARTESIAN_POINT('Origin',(3.41060513164848E-13,1.39286185662067E-14,
91.9999999999999));
#325=CARTESIAN_POINT('',(3.41060513164848E-13,-53.,92.));
#326=CARTESIAN_POINT('Origin',(3.41060513164848E-13,-37.0000000000005,91.9999999999999));
#327=CARTESIAN_POINT('',(53.0000000000003,7.43799053072577E-15,91.9999999999998));
#328=CARTESIAN_POINT('Origin',(3.41060513164848E-13,1.39286185662068E-14,
92.));
#329=CARTESIAN_POINT('Origin',(3.41060513164848E-13,1.39286185662068E-14,
92.));
#330=CARTESIAN_POINT('Origin',(3.97903932025656E-13,1.51532653653541E-14,
112.));
#331=CARTESIAN_POINT('',(53.0000000000005,9.88728412902047E-15,132.));
#332=CARTESIAN_POINT('',(53.0000000000004,8.66263732987312E-15,112.));
#333=CARTESIAN_POINT('Origin',(4.54747350886464E-13,1.63779121645015E-14,
132.));
#334=CARTESIAN_POINT('Origin',(-54.9999999999995,1.63779121645015E-14,132.));
#335=CARTESIAN_POINT('',(55.0000000000005,9.642354769191E-15,132.));
#336=CARTESIAN_POINT('Origin',(4.54747350886464E-13,1.63779121645015E-14,
132.));
#337=CARTESIAN_POINT('Origin',(3.97903932025656E-13,1.51532653653541E-14,
112.));
#338=CARTESIAN_POINT('',(3.41060513164848E-13,-55.,92.));
#339=CARTESIAN_POINT('',(55.0000000000003,7.1930611708963E-15,91.9999999999998));
#340=CARTESIAN_POINT('Origin',(3.41060513164848E-13,1.39286185662068E-14,
92.));
#341=CARTESIAN_POINT('Origin',(3.41060513164848E-13,1.39286185662068E-14,
92.));
#342=CARTESIAN_POINT('',(55.0000000000004,8.41770797004365E-15,112.));
#343=CARTESIAN_POINT('Origin',(3.41060513164848E-13,1.39286185662068E-14,
92.));
#344=CARTESIAN_POINT('',(2.8421709430404E-13,-52.5999999999998,83.0200222717424));
#345=CARTESIAN_POINT('Origin',(2.8421709430404E-13,1.33787535171405E-14,
83.0200222717424));
#346=CARTESIAN_POINT('Origin',(3.41060513164848E-13,-37.0000000000001,92.));
#347=CARTESIAN_POINT('Origin',(2.8421709430404E-13,1.3012176817763E-14,
77.0333704529042));
#348=CARTESIAN_POINT('',(2.8421709430404E-13,-51.,77.0333704529043));
#349=CARTESIAN_POINT('Origin',(2.8421709430404E-13,-63.0000000000003,77.0333704529042));
#350=CARTESIAN_POINT('',(51.0000000000003,6.76647814211149E-15,77.0333704529041));
#351=CARTESIAN_POINT('Origin',(2.8421709430404E-13,1.3012176817763E-14,
77.0333704529043));
#352=CARTESIAN_POINT('Origin',(2.8421709430404E-13,1.3012176817763E-14,
77.0333704529043));
#353=CARTESIAN_POINT('Origin',(1.70530256582424E-13,1.08531282231262E-14,
41.7734310787109));
#354=CARTESIAN_POINT('',(51.0000000000002,4.60742954747471E-15,41.7734310787107));
#355=UNCERTAINTY_MEASURE_WITH_UNIT(LENGTH_MEASURE(0.001),#359,
'DISTANCE_ACCURACY_VALUE',
'Maximum model space distance between geometric entities at asserted c
onnectivities');
#356=UNCERTAINTY_MEASURE_WITH_UNIT(LENGTH_MEASURE(0.001),#359,
'DISTANCE_ACCURACY_VALUE',
'Maximum model space distance between geometric entities at asserted c
onnectivities');
#357=(
GEOMETRIC_REPRESENTATION_CONTEXT(3)
GLOBAL_UNCERTAINTY_ASSIGNED_CONTEXT((#355))
GLOBAL_UNIT_ASSIGNED_CONTEXT((#359,#360,#361))
REPRESENTATION_CONTEXT('','3D')
);
#358=(
GEOMETRIC_REPRESENTATION_CONTEXT(3)
GLOBAL_UNCERTAINTY_ASSIGNED_CONTEXT((#356))
GLOBAL_UNIT_ASSIGNED_CONTEXT((#359,#360,#361))
REPRESENTATION_CONTEXT('','3D')
);
#359=(
LENGTH_UNIT()
NAMED_UNIT(*)
SI_UNIT(.CENTI.,.METRE.)
);
#360=(
NAMED_UNIT(*)
PLANE_ANGLE_UNIT()
SI_UNIT($,.RADIAN.)
);
#361=(
NAMED_UNIT(*)
SI_UNIT($,.STERADIAN.)
SOLID_ANGLE_UNIT()
);
#362=SHAPE_DEFINITION_REPRESENTATION(#363,#364);
#363=PRODUCT_DEFINITION_SHAPE('',$,#366);
#364=SHAPE_REPRESENTATION('',(#195),#357);
#365=PRODUCT_DEFINITION_CONTEXT('part definition',#370,'design');
#366=PRODUCT_DEFINITION('Product','Product',#367,#365);
#367=PRODUCT_DEFINITION_FORMATION('',$,#372);
#368=PRODUCT_RELATED_PRODUCT_CATEGORY('Product','Product',(#372));
#369=APPLICATION_PROTOCOL_DEFINITION('international standard',
'automotive_design',2009,#370);
#370=APPLICATION_CONTEXT(
'Core Data for Automotive Mechanical Design Process');
#371=PRODUCT_CONTEXT('part definition',#370,'mechanical');
#372=PRODUCT('Product','Product',$,(#371));
#373=PRESENTATION_STYLE_ASSIGNMENT((#374));
#374=SURFACE_STYLE_USAGE(.BOTH.,#375);
#375=SURFACE_SIDE_STYLE('',(#376));
#376=SURFACE_STYLE_FILL_AREA(#377);
#377=FILL_AREA_STYLE('',(#378));
#378=FILL_AREA_STYLE_COLOUR('',#379);
#379=COLOUR_RGB('',0.870588235294118,0.870588235294118,0.870588235294118);
ENDSEC;
END-ISO-10303-21;
