ISO-10303-21;
HEADER;
/* Generated by software containing ST-Developer
 * from STEP Tools, Inc. (www.steptools.com) 
 */

FILE_DESCRIPTION(
/* description */ (''),
/* implementation_level */ '2;1');

FILE_NAME(
/* name */ '00710.080X_3D.stp',
/* time_stamp */ '2024-12-11T12:59:57+01:00',
/* author */ ('CAD'),
/* organization */ (''),
/* preprocessor_version */ 'ST-DEVELOPER v20',
/* originating_system */ 'AutoCAD Mechanical',
/* authorisation */ '');

FILE_SCHEMA (('AUTOMOTIVE_DESIGN { 1 0 10303 214 3 1 1 }'));
ENDSEC;

DATA;
#10=MECHANICAL_DESIGN_GEOMETRIC_PRESENTATION_REPRESENTATION('',(#14),#498);
#11=PRESENTATION_LAYER_ASSIGNMENT('6','ROHR',(#15));
#12=SHAPE_REPRESENTATION_RELATIONSHIP('SRR','None',#504,#13);
#13=ADVANCED_BREP_SHAPE_REPRESENTATION('',(#15),#497);
#14=STYLED_ITEM('',(#513),#15);
#15=MANIFOLD_SOLID_BREP('7C1',#270);
#16=FACE_BOUND('',#52,.T.);
#17=FACE_BOUND('',#61,.T.);
#18=PLANE('',#293);
#19=PLANE('',#315);
#20=TOROIDAL_SURFACE('',#278,49.5000000000031,8.00000000000335);
#21=TOROIDAL_SURFACE('',#285,36.4999999999966,8.00000000000335);
#22=TOROIDAL_SURFACE('',#300,36.5000000000011,6.39999999999884);
#23=TOROIDAL_SURFACE('',#307,49.500000000004,9.60000000000423);
#24=CYLINDRICAL_SURFACE('',#275,41.4999999999999);
#25=CYLINDRICAL_SURFACE('',#289,44.4999999999999);
#26=CYLINDRICAL_SURFACE('',#297,42.8999999999999);
#27=CYLINDRICAL_SURFACE('',#311,39.8999999999999);
#28=FACE_OUTER_BOUND('',#44,.T.);
#29=FACE_OUTER_BOUND('',#45,.T.);
#30=FACE_OUTER_BOUND('',#46,.T.);
#31=FACE_OUTER_BOUND('',#47,.T.);
#32=FACE_OUTER_BOUND('',#48,.T.);
#33=FACE_OUTER_BOUND('',#49,.T.);
#34=FACE_OUTER_BOUND('',#50,.T.);
#35=FACE_OUTER_BOUND('',#51,.T.);
#36=FACE_OUTER_BOUND('',#53,.T.);
#37=FACE_OUTER_BOUND('',#54,.T.);
#38=FACE_OUTER_BOUND('',#55,.T.);
#39=FACE_OUTER_BOUND('',#56,.T.);
#40=FACE_OUTER_BOUND('',#57,.T.);
#41=FACE_OUTER_BOUND('',#58,.T.);
#42=FACE_OUTER_BOUND('',#59,.T.);
#43=FACE_OUTER_BOUND('',#60,.T.);
#44=EDGE_LOOP('',(#172,#173,#174,#175));
#45=EDGE_LOOP('',(#176,#177,#178,#179,#180));
#46=EDGE_LOOP('',(#181,#182,#183,#184,#185,#186));
#47=EDGE_LOOP('',(#187,#188,#189,#190,#191,#192));
#48=EDGE_LOOP('',(#193,#194,#195,#196,#197,#198));
#49=EDGE_LOOP('',(#199,#200,#201,#202,#203));
#50=EDGE_LOOP('',(#204,#205,#206,#207));
#51=EDGE_LOOP('',(#208));
#52=EDGE_LOOP('',(#209));
#53=EDGE_LOOP('',(#210,#211,#212,#213));
#54=EDGE_LOOP('',(#214,#215,#216,#217,#218));
#55=EDGE_LOOP('',(#219,#220,#221,#222,#223,#224));
#56=EDGE_LOOP('',(#225,#226,#227,#228,#229,#230));
#57=EDGE_LOOP('',(#231,#232,#233,#234,#235,#236));
#58=EDGE_LOOP('',(#237,#238,#239,#240,#241));
#59=EDGE_LOOP('',(#242,#243,#244,#245));
#60=EDGE_LOOP('',(#246));
#61=EDGE_LOOP('',(#247));
#62=LINE('',#421,#72);
#63=LINE('',#428,#73);
#64=LINE('',#440,#74);
#65=LINE('',#450,#75);
#66=LINE('',#454,#76);
#67=LINE('',#460,#77);
#68=LINE('',#464,#78);
#69=LINE('',#476,#79);
#70=LINE('',#488,#80);
#71=LINE('',#492,#81);
#72=VECTOR('',#322,41.2812783411851);
#73=VECTOR('',#331,41.4999999999999);
#74=VECTOR('',#346,42.9999999999999);
#75=VECTOR('',#359,44.4999999999999);
#76=VECTOR('',#364,44.2812783411851);
#77=VECTOR('',#371,42.6782224711504);
#78=VECTOR('',#376,42.8999999999999);
#79=VECTOR('',#391,41.4479672654146);
#80=VECTOR('',#406,39.8999999999999);
#81=VECTOR('',#411,39.6782224711505);
#82=CIRCLE('',#273,41.4999999999999);
#83=CIRCLE('',#274,41.0625566823704);
#84=CIRCLE('',#276,41.4999999999998);
#85=CIRCLE('',#277,41.4999999999998);
#86=CIRCLE('',#279,8.00000000000335);
#87=CIRCLE('',#280,41.7398363270735);
#88=CIRCLE('',#281,41.7398363270735);
#89=CIRCLE('',#283,44.2601636729262);
#90=CIRCLE('',#284,44.2601636729262);
#91=CIRCLE('',#286,44.4999999999999);
#92=CIRCLE('',#287,8.00000000000335);
#93=CIRCLE('',#288,44.4999999999999);
#94=CIRCLE('',#290,44.5);
#95=CIRCLE('',#292,44.0625566823703);
#96=CIRCLE('',#294,42.456444942301);
#97=CIRCLE('',#296,42.8999999999999);
#98=CIRCLE('',#298,42.8999999999999);
#99=CIRCLE('',#299,42.8999999999999);
#100=CIRCLE('',#301,6.39999999999884);
#101=CIRCLE('',#302,42.7081309383409);
#102=CIRCLE('',#303,42.7081309383409);
#103=CIRCLE('',#305,40.1878035924882);
#104=CIRCLE('',#306,40.1878035924882);
#105=CIRCLE('',#308,39.8999999999997);
#106=CIRCLE('',#309,9.60000000000423);
#107=CIRCLE('',#310,39.8999999999997);
#108=CIRCLE('',#312,39.9);
#109=CIRCLE('',#314,39.456444942301);
#110=VERTEX_POINT('',#418);
#111=VERTEX_POINT('',#420);
#112=VERTEX_POINT('',#424);
#113=VERTEX_POINT('',#425);
#114=VERTEX_POINT('',#430);
#115=VERTEX_POINT('',#432);
#116=VERTEX_POINT('',#436);
#117=VERTEX_POINT('',#437);
#118=VERTEX_POINT('',#442);
#119=VERTEX_POINT('',#443);
#120=VERTEX_POINT('',#448);
#121=VERTEX_POINT('',#452);
#122=VERTEX_POINT('',#456);
#123=VERTEX_POINT('',#459);
#124=VERTEX_POINT('',#463);
#125=VERTEX_POINT('',#465);
#126=VERTEX_POINT('',#469);
#127=VERTEX_POINT('',#471);
#128=VERTEX_POINT('',#475);
#129=VERTEX_POINT('',#477);
#130=VERTEX_POINT('',#481);
#131=VERTEX_POINT('',#482);
#132=VERTEX_POINT('',#487);
#133=VERTEX_POINT('',#491);
#134=EDGE_CURVE('',#110,#110,#82,.T.);
#135=EDGE_CURVE('',#110,#111,#62,.T.);
#136=EDGE_CURVE('',#111,#111,#83,.T.);
#137=EDGE_CURVE('',#112,#113,#84,.T.);
#138=EDGE_CURVE('',#113,#112,#85,.T.);
#139=EDGE_CURVE('',#113,#110,#63,.T.);
#140=EDGE_CURVE('',#112,#114,#86,.T.);
#141=EDGE_CURVE('',#115,#114,#87,.T.);
#142=EDGE_CURVE('',#114,#115,#88,.T.);
#143=EDGE_CURVE('',#116,#117,#89,.T.);
#144=EDGE_CURVE('',#117,#116,#90,.T.);
#145=EDGE_CURVE('',#117,#115,#64,.T.);
#146=EDGE_CURVE('',#118,#119,#91,.T.);
#147=EDGE_CURVE('',#118,#116,#92,.T.);
#148=EDGE_CURVE('',#119,#118,#93,.T.);
#149=EDGE_CURVE('',#120,#120,#94,.T.);
#150=EDGE_CURVE('',#120,#119,#65,.T.);
#151=EDGE_CURVE('',#121,#121,#95,.T.);
#152=EDGE_CURVE('',#121,#120,#66,.T.);
#153=EDGE_CURVE('',#122,#122,#96,.T.);
#154=EDGE_CURVE('',#122,#123,#67,.T.);
#155=EDGE_CURVE('',#123,#123,#97,.T.);
#156=EDGE_CURVE('',#123,#124,#68,.T.);
#157=EDGE_CURVE('',#125,#124,#98,.T.);
#158=EDGE_CURVE('',#124,#125,#99,.T.);
#159=EDGE_CURVE('',#125,#126,#100,.T.);
#160=EDGE_CURVE('',#127,#126,#101,.T.);
#161=EDGE_CURVE('',#126,#127,#102,.T.);
#162=EDGE_CURVE('',#127,#128,#69,.T.);
#163=EDGE_CURVE('',#129,#128,#103,.T.);
#164=EDGE_CURVE('',#128,#129,#104,.T.);
#165=EDGE_CURVE('',#130,#131,#105,.T.);
#166=EDGE_CURVE('',#130,#129,#106,.T.);
#167=EDGE_CURVE('',#131,#130,#107,.T.);
#168=EDGE_CURVE('',#131,#132,#70,.T.);
#169=EDGE_CURVE('',#132,#132,#108,.T.);
#170=EDGE_CURVE('',#132,#133,#71,.T.);
#171=EDGE_CURVE('',#133,#133,#109,.T.);
#172=ORIENTED_EDGE('',*,*,#134,.F.);
#173=ORIENTED_EDGE('',*,*,#135,.T.);
#174=ORIENTED_EDGE('',*,*,#136,.T.);
#175=ORIENTED_EDGE('',*,*,#135,.F.);
#176=ORIENTED_EDGE('',*,*,#137,.F.);
#177=ORIENTED_EDGE('',*,*,#138,.F.);
#178=ORIENTED_EDGE('',*,*,#139,.T.);
#179=ORIENTED_EDGE('',*,*,#134,.T.);
#180=ORIENTED_EDGE('',*,*,#139,.F.);
#181=ORIENTED_EDGE('',*,*,#137,.T.);
#182=ORIENTED_EDGE('',*,*,#138,.T.);
#183=ORIENTED_EDGE('',*,*,#140,.T.);
#184=ORIENTED_EDGE('',*,*,#141,.F.);
#185=ORIENTED_EDGE('',*,*,#142,.F.);
#186=ORIENTED_EDGE('',*,*,#140,.F.);
#187=ORIENTED_EDGE('',*,*,#143,.F.);
#188=ORIENTED_EDGE('',*,*,#144,.F.);
#189=ORIENTED_EDGE('',*,*,#145,.T.);
#190=ORIENTED_EDGE('',*,*,#141,.T.);
#191=ORIENTED_EDGE('',*,*,#142,.T.);
#192=ORIENTED_EDGE('',*,*,#145,.F.);
#193=ORIENTED_EDGE('',*,*,#146,.F.);
#194=ORIENTED_EDGE('',*,*,#147,.T.);
#195=ORIENTED_EDGE('',*,*,#143,.T.);
#196=ORIENTED_EDGE('',*,*,#144,.T.);
#197=ORIENTED_EDGE('',*,*,#147,.F.);
#198=ORIENTED_EDGE('',*,*,#148,.F.);
#199=ORIENTED_EDGE('',*,*,#149,.F.);
#200=ORIENTED_EDGE('',*,*,#150,.T.);
#201=ORIENTED_EDGE('',*,*,#148,.T.);
#202=ORIENTED_EDGE('',*,*,#146,.T.);
#203=ORIENTED_EDGE('',*,*,#150,.F.);
#204=ORIENTED_EDGE('',*,*,#151,.F.);
#205=ORIENTED_EDGE('',*,*,#152,.T.);
#206=ORIENTED_EDGE('',*,*,#149,.T.);
#207=ORIENTED_EDGE('',*,*,#152,.F.);
#208=ORIENTED_EDGE('',*,*,#151,.T.);
#209=ORIENTED_EDGE('',*,*,#153,.F.);
#210=ORIENTED_EDGE('',*,*,#153,.T.);
#211=ORIENTED_EDGE('',*,*,#154,.T.);
#212=ORIENTED_EDGE('',*,*,#155,.F.);
#213=ORIENTED_EDGE('',*,*,#154,.F.);
#214=ORIENTED_EDGE('',*,*,#155,.T.);
#215=ORIENTED_EDGE('',*,*,#156,.T.);
#216=ORIENTED_EDGE('',*,*,#157,.F.);
#217=ORIENTED_EDGE('',*,*,#158,.F.);
#218=ORIENTED_EDGE('',*,*,#156,.F.);
#219=ORIENTED_EDGE('',*,*,#157,.T.);
#220=ORIENTED_EDGE('',*,*,#158,.T.);
#221=ORIENTED_EDGE('',*,*,#159,.T.);
#222=ORIENTED_EDGE('',*,*,#160,.F.);
#223=ORIENTED_EDGE('',*,*,#161,.F.);
#224=ORIENTED_EDGE('',*,*,#159,.F.);
#225=ORIENTED_EDGE('',*,*,#161,.T.);
#226=ORIENTED_EDGE('',*,*,#162,.T.);
#227=ORIENTED_EDGE('',*,*,#163,.F.);
#228=ORIENTED_EDGE('',*,*,#164,.F.);
#229=ORIENTED_EDGE('',*,*,#162,.F.);
#230=ORIENTED_EDGE('',*,*,#160,.T.);
#231=ORIENTED_EDGE('',*,*,#165,.F.);
#232=ORIENTED_EDGE('',*,*,#166,.T.);
#233=ORIENTED_EDGE('',*,*,#163,.T.);
#234=ORIENTED_EDGE('',*,*,#164,.T.);
#235=ORIENTED_EDGE('',*,*,#166,.F.);
#236=ORIENTED_EDGE('',*,*,#167,.F.);
#237=ORIENTED_EDGE('',*,*,#165,.T.);
#238=ORIENTED_EDGE('',*,*,#168,.T.);
#239=ORIENTED_EDGE('',*,*,#169,.F.);
#240=ORIENTED_EDGE('',*,*,#168,.F.);
#241=ORIENTED_EDGE('',*,*,#167,.T.);
#242=ORIENTED_EDGE('',*,*,#169,.T.);
#243=ORIENTED_EDGE('',*,*,#170,.T.);
#244=ORIENTED_EDGE('',*,*,#171,.F.);
#245=ORIENTED_EDGE('',*,*,#170,.F.);
#246=ORIENTED_EDGE('',*,*,#136,.F.);
#247=ORIENTED_EDGE('',*,*,#171,.T.);
#248=CONICAL_SURFACE('',#272,41.2812783411852,0.0872664625997126);
#249=CONICAL_SURFACE('',#282,42.9999999999999,0.245481345823728);
#250=CONICAL_SURFACE('',#291,44.2812783411851,0.0872664625997182);
#251=CONICAL_SURFACE('',#295,42.6782224711504,0.0872664625997234);
#252=CONICAL_SURFACE('',#304,41.4479672654146,0.245481345823727);
#253=CONICAL_SURFACE('',#313,39.6782224711505,0.0872664625997221);
#254=ADVANCED_FACE('',(#28),#248,.T.);
#255=ADVANCED_FACE('',(#29),#24,.T.);
#256=ADVANCED_FACE('',(#30),#20,.F.);
#257=ADVANCED_FACE('',(#31),#249,.T.);
#258=ADVANCED_FACE('',(#32),#21,.T.);
#259=ADVANCED_FACE('',(#33),#25,.T.);
#260=ADVANCED_FACE('',(#34),#250,.T.);
#261=ADVANCED_FACE('',(#35,#16),#18,.T.);
#262=ADVANCED_FACE('',(#36),#251,.F.);
#263=ADVANCED_FACE('',(#37),#26,.F.);
#264=ADVANCED_FACE('',(#38),#22,.F.);
#265=ADVANCED_FACE('',(#39),#252,.F.);
#266=ADVANCED_FACE('',(#40),#23,.T.);
#267=ADVANCED_FACE('',(#41),#27,.F.);
#268=ADVANCED_FACE('',(#42),#253,.F.);
#269=ADVANCED_FACE('',(#43,#17),#19,.T.);
#270=CLOSED_SHELL('',(#254,#255,#256,#257,#258,#259,#260,#261,#262,#263,
#264,#265,#266,#267,#268,#269));
#271=AXIS2_PLACEMENT_3D('',#416,#316,#317);
#272=AXIS2_PLACEMENT_3D('',#417,#318,#319);
#273=AXIS2_PLACEMENT_3D('',#419,#320,#321);
#274=AXIS2_PLACEMENT_3D('',#422,#323,#324);
#275=AXIS2_PLACEMENT_3D('',#423,#325,#326);
#276=AXIS2_PLACEMENT_3D('',#426,#327,#328);
#277=AXIS2_PLACEMENT_3D('',#427,#329,#330);
#278=AXIS2_PLACEMENT_3D('',#429,#332,#333);
#279=AXIS2_PLACEMENT_3D('',#431,#334,#335);
#280=AXIS2_PLACEMENT_3D('',#433,#336,#337);
#281=AXIS2_PLACEMENT_3D('',#434,#338,#339);
#282=AXIS2_PLACEMENT_3D('',#435,#340,#341);
#283=AXIS2_PLACEMENT_3D('',#438,#342,#343);
#284=AXIS2_PLACEMENT_3D('',#439,#344,#345);
#285=AXIS2_PLACEMENT_3D('',#441,#347,#348);
#286=AXIS2_PLACEMENT_3D('',#444,#349,#350);
#287=AXIS2_PLACEMENT_3D('',#445,#351,#352);
#288=AXIS2_PLACEMENT_3D('',#446,#353,#354);
#289=AXIS2_PLACEMENT_3D('',#447,#355,#356);
#290=AXIS2_PLACEMENT_3D('',#449,#357,#358);
#291=AXIS2_PLACEMENT_3D('',#451,#360,#361);
#292=AXIS2_PLACEMENT_3D('',#453,#362,#363);
#293=AXIS2_PLACEMENT_3D('',#455,#365,#366);
#294=AXIS2_PLACEMENT_3D('',#457,#367,#368);
#295=AXIS2_PLACEMENT_3D('',#458,#369,#370);
#296=AXIS2_PLACEMENT_3D('',#461,#372,#373);
#297=AXIS2_PLACEMENT_3D('',#462,#374,#375);
#298=AXIS2_PLACEMENT_3D('',#466,#377,#378);
#299=AXIS2_PLACEMENT_3D('',#467,#379,#380);
#300=AXIS2_PLACEMENT_3D('',#468,#381,#382);
#301=AXIS2_PLACEMENT_3D('',#470,#383,#384);
#302=AXIS2_PLACEMENT_3D('',#472,#385,#386);
#303=AXIS2_PLACEMENT_3D('',#473,#387,#388);
#304=AXIS2_PLACEMENT_3D('',#474,#389,#390);
#305=AXIS2_PLACEMENT_3D('',#478,#392,#393);
#306=AXIS2_PLACEMENT_3D('',#479,#394,#395);
#307=AXIS2_PLACEMENT_3D('',#480,#396,#397);
#308=AXIS2_PLACEMENT_3D('',#483,#398,#399);
#309=AXIS2_PLACEMENT_3D('',#484,#400,#401);
#310=AXIS2_PLACEMENT_3D('',#485,#402,#403);
#311=AXIS2_PLACEMENT_3D('',#486,#404,#405);
#312=AXIS2_PLACEMENT_3D('',#489,#407,#408);
#313=AXIS2_PLACEMENT_3D('',#490,#409,#410);
#314=AXIS2_PLACEMENT_3D('',#493,#412,#413);
#315=AXIS2_PLACEMENT_3D('',#494,#414,#415);
#316=DIRECTION('axis',(0.,0.,1.));
#317=DIRECTION('refdir',(1.,0.,0.));
#318=DIRECTION('center_axis',(-3.920235783504E-16,-6.12323399573677E-17,
-1.));
#319=DIRECTION('ref_axis',(-1.,2.15574109732263E-32,3.52059238438959E-16));
#320=DIRECTION('center_axis',(-3.920235783504E-16,-6.12323399573677E-17,
-1.));
#321=DIRECTION('ref_axis',(1.,-2.40045210208555E-32,-3.920235783504E-16));
#322=DIRECTION('',(-0.0871557427476539,7.16728325556035E-17,0.996194698091746));
#323=DIRECTION('center_axis',(-3.920235783504E-16,-6.12323399573677E-17,
-1.));
#324=DIRECTION('ref_axis',(1.,-2.40045210208555E-32,-3.920235783504E-16));
#325=DIRECTION('center_axis',(-3.920235783504E-16,-6.12323399573677E-17,
-1.));
#326=DIRECTION('ref_axis',(-1.,2.15574109732263E-32,3.52059238438959E-16));
#327=DIRECTION('center_axis',(-3.920235783504E-16,-6.12323399573677E-17,
-1.));
#328=DIRECTION('ref_axis',(1.,-2.40045210208555E-32,-3.920235783504E-16));
#329=DIRECTION('center_axis',(-3.920235783504E-16,-6.12323399573677E-17,
-1.));
#330=DIRECTION('ref_axis',(1.,-2.40045210208555E-32,-3.920235783504E-16));
#331=DIRECTION('',(3.920235783504E-16,6.12323399573677E-17,1.));
#332=DIRECTION('center_axis',(-3.920235783504E-16,-6.12323399573677E-17,
-1.));
#333=DIRECTION('ref_axis',(0.,1.,0.));
#334=DIRECTION('center_axis',(-1.,2.40045210208555E-32,3.920235783504E-16));
#335=DIRECTION('ref_axis',(0.,-1.,6.12323399573677E-17));
#336=DIRECTION('center_axis',(-3.920235783504E-16,-6.12323399573677E-17,
-1.));
#337=DIRECTION('ref_axis',(1.,-2.40045210208555E-32,-3.920235783504E-16));
#338=DIRECTION('center_axis',(-3.920235783504E-16,-6.12323399573677E-17,
-1.));
#339=DIRECTION('ref_axis',(1.,-2.40045210208555E-32,-3.920235783504E-16));
#340=DIRECTION('center_axis',(-3.920235783504E-16,-6.12323399573677E-17,
-1.));
#341=DIRECTION('ref_axis',(-1.,2.15574109732263E-32,3.52059238438959E-16));
#342=DIRECTION('center_axis',(-3.920235783504E-16,-6.12323399573677E-17,
-1.));
#343=DIRECTION('ref_axis',(1.,-2.40045210208555E-32,-3.920235783504E-16));
#344=DIRECTION('center_axis',(-3.920235783504E-16,-6.12323399573677E-17,
-1.));
#345=DIRECTION('ref_axis',(1.,-2.40045210208555E-32,-3.920235783504E-16));
#346=DIRECTION('',(-0.24302326822096,8.91583892726925E-17,0.970020459115788));
#347=DIRECTION('center_axis',(-3.920235783504E-16,-6.12323399573677E-17,
-1.));
#348=DIRECTION('ref_axis',(0.,1.,0.));
#349=DIRECTION('center_axis',(-3.920235783504E-16,-6.12323399573677E-17,
-1.));
#350=DIRECTION('ref_axis',(1.,-2.40045210208555E-32,-3.920235783504E-16));
#351=DIRECTION('center_axis',(-1.,2.40045210208555E-32,3.920235783504E-16));
#352=DIRECTION('ref_axis',(0.,-1.,6.12323399573677E-17));
#353=DIRECTION('center_axis',(-3.920235783504E-16,-6.12323399573677E-17,
-1.));
#354=DIRECTION('ref_axis',(1.,-2.40045210208555E-32,-3.920235783504E-16));
#355=DIRECTION('center_axis',(-3.920235783504E-16,-6.12323399573677E-17,
-1.));
#356=DIRECTION('ref_axis',(-1.,2.15574109732263E-32,3.52059238438959E-16));
#357=DIRECTION('center_axis',(-3.920235783504E-16,-6.12323399573677E-17,
-1.));
#358=DIRECTION('ref_axis',(1.,-2.40045210208555E-32,-3.920235783504E-16));
#359=DIRECTION('',(3.920235783504E-16,6.12323399573677E-17,1.));
#360=DIRECTION('center_axis',(3.920235783504E-16,6.12323399573677E-17,1.));
#361=DIRECTION('ref_axis',(-1.,2.15574109732263E-32,3.52059238438959E-16));
#362=DIRECTION('center_axis',(-3.920235783504E-16,-6.12323399573677E-17,
-1.));
#363=DIRECTION('ref_axis',(1.,-2.40045210208555E-32,-3.920235783504E-16));
#364=DIRECTION('',(0.0871557427476603,5.03258322789578E-17,0.996194698091745));
#365=DIRECTION('center_axis',(-3.920235783504E-16,-6.12323399573677E-17,
-1.));
#366=DIRECTION('ref_axis',(0.,1.,-6.12323399573677E-17));
#367=DIRECTION('center_axis',(-3.920235783504E-16,-6.12323399573677E-17,
-1.));
#368=DIRECTION('ref_axis',(1.,-2.40045210208555E-32,-3.920235783504E-16));
#369=DIRECTION('center_axis',(3.920235783504E-16,6.12323399573677E-17,1.));
#370=DIRECTION('ref_axis',(-1.,2.15574109732263E-32,3.52059238438959E-16));
#371=DIRECTION('',(0.0871557427476655,5.03258322789571E-17,0.996194698091745));
#372=DIRECTION('center_axis',(-3.920235783504E-16,-6.12323399573677E-17,
-1.));
#373=DIRECTION('ref_axis',(1.,-2.40045210208555E-32,-3.920235783504E-16));
#374=DIRECTION('center_axis',(-3.920235783504E-16,-6.12323399573677E-17,
-1.));
#375=DIRECTION('ref_axis',(-1.,2.15574109732263E-32,3.52059238438959E-16));
#376=DIRECTION('',(3.920235783504E-16,6.12323399573677E-17,1.));
#377=DIRECTION('center_axis',(-3.920235783504E-16,-6.12323399573677E-17,
-1.));
#378=DIRECTION('ref_axis',(1.,-2.40045210208555E-32,-3.920235783504E-16));
#379=DIRECTION('center_axis',(-3.920235783504E-16,-6.12323399573677E-17,
-1.));
#380=DIRECTION('ref_axis',(1.,-2.40045210208555E-32,-3.920235783504E-16));
#381=DIRECTION('center_axis',(-3.920235783504E-16,-6.12323399573677E-17,
-1.));
#382=DIRECTION('ref_axis',(0.,1.,0.));
#383=DIRECTION('center_axis',(-1.,2.40045210208555E-32,3.920235783504E-16));
#384=DIRECTION('ref_axis',(0.,-1.,6.12323399573677E-17));
#385=DIRECTION('center_axis',(-3.920235783504E-16,-6.12323399573677E-17,
-1.));
#386=DIRECTION('ref_axis',(1.,-2.40045210208555E-32,-3.920235783504E-16));
#387=DIRECTION('center_axis',(-3.920235783504E-16,-6.12323399573677E-17,
-1.));
#388=DIRECTION('ref_axis',(1.,-2.40045210208555E-32,-3.920235783504E-16));
#389=DIRECTION('center_axis',(-3.920235783504E-16,-6.12323399573677E-17,
-1.));
#390=DIRECTION('ref_axis',(-1.,2.15574109732263E-32,3.52059238438959E-16));
#391=DIRECTION('',(-0.243023268220959,8.91583892726924E-17,0.970020459115788));
#392=DIRECTION('center_axis',(-3.920235783504E-16,-6.12323399573677E-17,
-1.));
#393=DIRECTION('ref_axis',(1.,-2.40045210208555E-32,-3.920235783504E-16));
#394=DIRECTION('center_axis',(-3.920235783504E-16,-6.12323399573677E-17,
-1.));
#395=DIRECTION('ref_axis',(1.,-2.40045210208555E-32,-3.920235783504E-16));
#396=DIRECTION('center_axis',(-3.920235783504E-16,-6.12323399573677E-17,
-1.));
#397=DIRECTION('ref_axis',(0.,1.,0.));
#398=DIRECTION('center_axis',(-3.920235783504E-16,-6.12323399573677E-17,
-1.));
#399=DIRECTION('ref_axis',(1.,-2.40045210208555E-32,-3.920235783504E-16));
#400=DIRECTION('center_axis',(-1.,2.40045210208555E-32,3.920235783504E-16));
#401=DIRECTION('ref_axis',(0.,-1.,6.12323399573677E-17));
#402=DIRECTION('center_axis',(-3.920235783504E-16,-6.12323399573677E-17,
-1.));
#403=DIRECTION('ref_axis',(1.,-2.40045210208555E-32,-3.920235783504E-16));
#404=DIRECTION('center_axis',(-3.920235783504E-16,-6.12323399573677E-17,
-1.));
#405=DIRECTION('ref_axis',(-1.,2.15574109732263E-32,3.52059238438959E-16));
#406=DIRECTION('',(3.920235783504E-16,6.12323399573677E-17,1.));
#407=DIRECTION('center_axis',(-3.920235783504E-16,-6.12323399573677E-17,
-1.));
#408=DIRECTION('ref_axis',(1.,-2.40045210208555E-32,-3.920235783504E-16));
#409=DIRECTION('center_axis',(-3.920235783504E-16,-6.12323399573677E-17,
-1.));
#410=DIRECTION('ref_axis',(-1.,2.15574109732263E-32,3.52059238438959E-16));
#411=DIRECTION('',(-0.0871557427476634,7.16728325556046E-17,0.996194698091745));
#412=DIRECTION('center_axis',(-3.920235783504E-16,-6.12323399573677E-17,
-1.));
#413=DIRECTION('ref_axis',(1.,-2.40045210208555E-32,-3.920235783504E-16));
#414=DIRECTION('center_axis',(3.920235783504E-16,6.12323399573677E-17,1.));
#415=DIRECTION('ref_axis',(0.,-1.,6.12323399573677E-17));
#416=CARTESIAN_POINT('',(0.,0.,0.));
#417=CARTESIAN_POINT('Origin',(5.6843418860808E-14,-1.23083967083759E-14,
132.5));
#418=CARTESIAN_POINT('',(41.5,-1.75437617747308E-14,130.));
#419=CARTESIAN_POINT('Origin',(5.6843418860808E-14,-1.24614775582693E-14,
130.));
#420=CARTESIAN_POINT('',(41.0625566823704,-1.71840287190696E-14,135.));
#421=CARTESIAN_POINT('',(41.2812783411852,-1.73638952469002E-14,132.5));
#422=CARTESIAN_POINT('Origin',(5.6843418860808E-14,-1.21553158584824E-14,
135.));
#423=CARTESIAN_POINT('Origin',(5.6843418860808E-14,-1.39016223655782E-14,
106.480650448576));
#424=CARTESIAN_POINT('',(5.6843418860808E-14,-41.4999999999998,82.9613008971524));
#425=CARTESIAN_POINT('',(41.4999999999999,-2.04240513893487E-14,82.9613008971524));
#426=CARTESIAN_POINT('Origin',(5.6843418860808E-14,-1.53417671728872E-14,
82.9613008971524));
#427=CARTESIAN_POINT('Origin',(5.6843418860808E-14,-1.53417671728872E-14,
82.9613008971524));
#428=CARTESIAN_POINT('',(41.4999999999999,-1.89839065820397E-14,106.480650448576));
#429=CARTESIAN_POINT('Origin',(5.6843418860808E-14,-1.53417671728872E-14,
82.9613008971528));
#430=CARTESIAN_POINT('',(5.6843418860808E-14,-41.7398363270735,81.0171147513848));
#431=CARTESIAN_POINT('Origin',(5.6843418860808E-14,-49.5000000000031,82.9613008971528));
#432=CARTESIAN_POINT('',(41.7398363270735,-2.05724699353937E-14,81.0171147513848));
#433=CARTESIAN_POINT('Origin',(5.6843418860808E-14,-1.54608142399052E-14,
81.0171147513848));
#434=CARTESIAN_POINT('Origin',(5.6843418860808E-14,-1.54608142399052E-14,
81.0171147513848));
#435=CARTESIAN_POINT('Origin',(5.6843418860808E-14,-1.57688072421386E-14,
75.9872073128029));
#436=CARTESIAN_POINT('',(5.6843418860808E-14,-44.2601636729262,70.957299874221));
#437=CARTESIAN_POINT('',(44.2601636729264,-2.14971070215506E-14,70.957299874221));
#438=CARTESIAN_POINT('Origin',(5.6843418860808E-14,-1.60768002443719E-14,
70.957299874221));
#439=CARTESIAN_POINT('Origin',(5.6843418860808E-14,-1.60768002443719E-14,
70.957299874221));
#440=CARTESIAN_POINT('',(42.9999999999999,-2.10347884784722E-14,75.9872073128029));
#441=CARTESIAN_POINT('Origin',(5.6843418860808E-14,-1.619584731139E-14,
69.0131137284529));
#442=CARTESIAN_POINT('',(5.6843418860808E-14,-44.4999999999999,69.0131137284533));
#443=CARTESIAN_POINT('',(44.4999999999999,-2.16455255675957E-14,69.0131137284533));
#444=CARTESIAN_POINT('Origin',(5.6843418860808E-14,-1.619584731139E-14,
69.0131137284533));
#445=CARTESIAN_POINT('Origin',(5.6843418860808E-14,-36.4999999999966,69.0131137284529));
#446=CARTESIAN_POINT('Origin',(5.6843418860808E-14,-1.619584731139E-14,
69.0131137284533));
#447=CARTESIAN_POINT('Origin',(0.,-1.81556836821651E-14,37.0065568642267));
#448=CARTESIAN_POINT('',(44.4999999999999,-2.5565198309146E-14,4.99999999999997));
#449=CARTESIAN_POINT('Origin',(0.,-2.01155200529402E-14,5.00000000000003));
#450=CARTESIAN_POINT('',(44.4999999999999,-2.36053619383708E-14,37.0065568642266));
#451=CARTESIAN_POINT('Origin',(0.,-2.02686009028337E-14,2.5));
#452=CARTESIAN_POINT('',(44.0625566823703,-2.58177886530584E-14,-2.8421709430404E-14));
#453=CARTESIAN_POINT('Origin',(0.,-2.04216817527271E-14,0.));
#454=CARTESIAN_POINT('',(44.2812783411851,-2.56914934811022E-14,2.49999999999997));
#455=CARTESIAN_POINT('Origin',(-42.4564449423009,-2.04216817527271E-14,
2.8421709430404E-14));
#456=CARTESIAN_POINT('',(42.4564449423009,-2.56210966929036E-14,-2.8421709430404E-14));
#457=CARTESIAN_POINT('Origin',(0.,-2.04216817527271E-14,0.));
#458=CARTESIAN_POINT('Origin',(0.,-2.02664621334745E-14,2.53492875432659));
#459=CARTESIAN_POINT('',(42.8999999999999,-2.5364977282564E-14,5.06985750865317));
#460=CARTESIAN_POINT('',(42.6782224711504,-2.54930369877338E-14,2.53492875432656));
#461=CARTESIAN_POINT('Origin',(0.,-2.01112425142218E-14,5.0698575086532));
#462=CARTESIAN_POINT('Origin',(0.,-1.81535449128059E-14,37.0414856185533));
#463=CARTESIAN_POINT('',(42.8999999999999,-2.14495820797321E-14,69.0131137284533));
#464=CARTESIAN_POINT('',(42.8999999999999,-2.3407279681148E-14,37.0414856185532));
#465=CARTESIAN_POINT('',(5.6843418860808E-14,-42.9,69.0131137284533));
#466=CARTESIAN_POINT('Origin',(5.6843418860808E-14,-1.619584731139E-14,
69.0131137284533));
#467=CARTESIAN_POINT('Origin',(5.6843418860808E-14,-1.619584731139E-14,
69.0131137284533));
#468=CARTESIAN_POINT('Origin',(5.6843418860808E-14,-1.619584731139E-14,
69.0131137284532));
#469=CARTESIAN_POINT('',(5.6843418860808E-14,-42.7081309383409,70.5684626450675));
#470=CARTESIAN_POINT('Origin',(5.6843418860808E-14,-36.5000000000011,69.0131137284532));
#471=CARTESIAN_POINT('',(42.708130938341,-2.1330847242896E-14,70.5684626450674));
#472=CARTESIAN_POINT('Origin',(5.6843418860808E-14,-1.61006096577755E-14,
70.5684626450675));
#473=CARTESIAN_POINT('Origin',(5.6843418860808E-14,-1.61006096577755E-14,
70.5684626450675));
#474=CARTESIAN_POINT('Origin',(5.6843418860808E-14,-1.57926166555422E-14,
75.5983700836493));
#475=CARTESIAN_POINT('',(40.1878035924883,-2.04062101567392E-14,80.6282775222312));
#476=CARTESIAN_POINT('',(41.4479672654147,-2.08685286998176E-14,75.5983700836493));
#477=CARTESIAN_POINT('',(5.6843418860808E-14,-40.1878035924882,80.6282775222312));
#478=CARTESIAN_POINT('Origin',(5.6843418860808E-14,-1.54846236533088E-14,
80.6282775222312));
#479=CARTESIAN_POINT('Origin',(5.6843418860808E-14,-1.54846236533088E-14,
80.6282775222312));
#480=CARTESIAN_POINT('Origin',(5.6843418860808E-14,-1.53417671728871E-14,
82.961300897153));
#481=CARTESIAN_POINT('',(5.6843418860808E-14,-39.8999999999997,82.9613008971524));
#482=CARTESIAN_POINT('',(39.8999999999999,-2.02281079014851E-14,82.9613008971524));
#483=CARTESIAN_POINT('Origin',(5.6843418860808E-14,-1.53417671728872E-14,
82.9613008971524));
#484=CARTESIAN_POINT('Origin',(5.6843418860808E-14,-49.500000000004,82.961300897153));
#485=CARTESIAN_POINT('Origin',(5.6843418860808E-14,-1.53417671728872E-14,
82.9613008971524));
#486=CARTESIAN_POINT('Origin',(5.6843418860808E-14,-1.39037611349374E-14,
106.44572169425));
#487=CARTESIAN_POINT('',(39.8999999999999,-1.73520958255856E-14,129.930142491347));
#488=CARTESIAN_POINT('',(39.8999999999999,-1.87901018635354E-14,106.44572169425));
#489=CARTESIAN_POINT('Origin',(5.6843418860808E-14,-1.24657550969877E-14,
129.930142491347));
#490=CARTESIAN_POINT('Origin',(5.6843418860808E-14,-1.23105354777351E-14,
132.465071245673));
#491=CARTESIAN_POINT('',(39.4564449423011,-1.69873367589147E-14,135.));
#492=CARTESIAN_POINT('',(39.6782224711505,-1.71697162922502E-14,132.465071245673));
#493=CARTESIAN_POINT('Origin',(5.6843418860808E-14,-1.21553158584824E-14,
135.));
#494=CARTESIAN_POINT('Origin',(-41.0625566823703,-1.21553158584824E-14,
135.));
#495=UNCERTAINTY_MEASURE_WITH_UNIT(LENGTH_MEASURE(0.001),#499,
'DISTANCE_ACCURACY_VALUE',
'Maximum model space distance between geometric entities at asserted c
onnectivities');
#496=UNCERTAINTY_MEASURE_WITH_UNIT(LENGTH_MEASURE(0.001),#499,
'DISTANCE_ACCURACY_VALUE',
'Maximum model space distance between geometric entities at asserted c
onnectivities');
#497=(
GEOMETRIC_REPRESENTATION_CONTEXT(3)
GLOBAL_UNCERTAINTY_ASSIGNED_CONTEXT((#495))
GLOBAL_UNIT_ASSIGNED_CONTEXT((#499,#500,#501))
REPRESENTATION_CONTEXT('','3D')
);
#498=(
GEOMETRIC_REPRESENTATION_CONTEXT(3)
GLOBAL_UNCERTAINTY_ASSIGNED_CONTEXT((#496))
GLOBAL_UNIT_ASSIGNED_CONTEXT((#499,#500,#501))
REPRESENTATION_CONTEXT('','3D')
);
#499=(
LENGTH_UNIT()
NAMED_UNIT(*)
SI_UNIT(.CENTI.,.METRE.)
);
#500=(
NAMED_UNIT(*)
PLANE_ANGLE_UNIT()
SI_UNIT($,.RADIAN.)
);
#501=(
NAMED_UNIT(*)
SI_UNIT($,.STERADIAN.)
SOLID_ANGLE_UNIT()
);
#502=SHAPE_DEFINITION_REPRESENTATION(#503,#504);
#503=PRODUCT_DEFINITION_SHAPE('',$,#506);
#504=SHAPE_REPRESENTATION('',(#271),#497);
#505=PRODUCT_DEFINITION_CONTEXT('part definition',#510,'design');
#506=PRODUCT_DEFINITION('Product','Product',#507,#505);
#507=PRODUCT_DEFINITION_FORMATION('',$,#512);
#508=PRODUCT_RELATED_PRODUCT_CATEGORY('Product','Product',(#512));
#509=APPLICATION_PROTOCOL_DEFINITION('international standard',
'automotive_design',2009,#510);
#510=APPLICATION_CONTEXT(
'Core Data for Automotive Mechanical Design Process');
#511=PRODUCT_CONTEXT('part definition',#510,'mechanical');
#512=PRODUCT('Product','Product',$,(#511));
#513=PRESENTATION_STYLE_ASSIGNMENT((#514));
#514=SURFACE_STYLE_USAGE(.BOTH.,#515);
#515=SURFACE_SIDE_STYLE('',(#516));
#516=SURFACE_STYLE_FILL_AREA(#517);
#517=FILL_AREA_STYLE('',(#518));
#518=FILL_AREA_STYLE_COLOUR('',#519);
#519=COLOUR_RGB('',0.870588235294118,0.870588235294118,0.870588235294118);
ENDSEC;
END-ISO-10303-21;
