ISO-10303-21;
HEADER;
/* Generated by software containing ST-Developer
 * from STEP Tools, Inc. (www.steptools.com) 
 */

FILE_DESCRIPTION(
/* description */ (''),
/* implementation_level */ '2;1');

FILE_NAME(
/* name */ '00710.050X_3D.stp',
/* time_stamp */ '2024-12-11T12:59:53+01:00',
/* author */ ('CAD'),
/* organization */ (''),
/* preprocessor_version */ 'ST-DEVELOPER v20',
/* originating_system */ 'AutoCAD Mechanical',
/* authorisation */ '');

FILE_SCHEMA (('AUTOMOTIVE_DESIGN { 1 0 10303 214 3 1 1 }'));
ENDSEC;

DATA;
#10=MECHANICAL_DESIGN_GEOMETRIC_PRESENTATION_REPRESENTATION('',(#14),#358);
#11=PRESENTATION_LAYER_ASSIGNMENT('4','ROHR',(#15));
#12=SHAPE_REPRESENTATION_RELATIONSHIP('SRR','None',#364,#13);
#13=ADVANCED_BREP_SHAPE_REPRESENTATION('',(#15),#357);
#14=STYLED_ITEM('',(#373),#15);
#15=MANIFOLD_SOLID_BREP('3DF',#194);
#16=TOROIDAL_SURFACE('',#206,34.5000000000007,9.50000000000068);
#17=TOROIDAL_SURFACE('',#209,17.0000000000015,10.4999999999985);
#18=TOROIDAL_SURFACE('',#220,17.0000000000002,11.9999999999998);
#19=TOROIDAL_SURFACE('',#223,34.4999999999994,7.99999999999938);
#20=CYLINDRICAL_SURFACE('',#203,25.);
#21=CYLINDRICAL_SURFACE('',#213,27.4999999999999);
#22=CYLINDRICAL_SURFACE('',#217,29.);
#23=CYLINDRICAL_SURFACE('',#227,26.5);
#24=FACE_BOUND('',#42,.T.);
#25=FACE_BOUND('',#49,.T.);
#26=PLANE('',#199);
#27=PLANE('',#215);
#28=FACE_OUTER_BOUND('',#40,.T.);
#29=FACE_OUTER_BOUND('',#41,.T.);
#30=FACE_OUTER_BOUND('',#43,.T.);
#31=FACE_OUTER_BOUND('',#44,.T.);
#32=FACE_OUTER_BOUND('',#45,.T.);
#33=FACE_OUTER_BOUND('',#46,.T.);
#34=FACE_OUTER_BOUND('',#47,.T.);
#35=FACE_OUTER_BOUND('',#48,.T.);
#36=FACE_OUTER_BOUND('',#50,.T.);
#37=FACE_OUTER_BOUND('',#51,.T.);
#38=FACE_OUTER_BOUND('',#52,.T.);
#39=FACE_OUTER_BOUND('',#53,.T.);
#40=EDGE_LOOP('',(#128,#129,#130,#131));
#41=EDGE_LOOP('',(#132));
#42=EDGE_LOOP('',(#133));
#43=EDGE_LOOP('',(#134,#135,#136,#137));
#44=EDGE_LOOP('',(#138,#139,#140,#141,#142));
#45=EDGE_LOOP('',(#143,#144,#145,#146,#147));
#46=EDGE_LOOP('',(#148,#149,#150,#151,#152));
#47=EDGE_LOOP('',(#153,#154,#155,#156,#157));
#48=EDGE_LOOP('',(#158));
#49=EDGE_LOOP('',(#159));
#50=EDGE_LOOP('',(#160,#161,#162,#163,#164));
#51=EDGE_LOOP('',(#165,#166,#167,#168,#169));
#52=EDGE_LOOP('',(#170,#171,#172,#173,#174));
#53=EDGE_LOOP('',(#175,#176,#177,#178,#179));
#54=LINE('',#305,#60);
#55=LINE('',#312,#61);
#56=LINE('',#316,#62);
#57=LINE('',#332,#63);
#58=LINE('',#342,#64);
#59=LINE('',#354,#65);
#60=VECTOR('',#234,26.2812783411852);
#61=VECTOR('',#243,24.7784134630276);
#62=VECTOR('',#248,25.);
#63=VECTOR('',#269,27.4999999999999);
#64=VECTOR('',#282,29.);
#65=VECTOR('',#299,26.5);
#66=CIRCLE('',#197,26.0625566823703);
#67=CIRCLE('',#198,26.5);
#68=CIRCLE('',#200,24.5568269260554);
#69=CIRCLE('',#202,25.);
#70=CIRCLE('',#204,25.);
#71=CIRCLE('',#205,25.);
#72=CIRCLE('',#207,26.1875000000001);
#73=CIRCLE('',#208,9.50000000000068);
#74=CIRCLE('',#210,10.4999999999985);
#75=CIRCLE('',#211,27.5);
#76=CIRCLE('',#212,27.5);
#77=CIRCLE('',#214,27.4999999999999);
#78=CIRCLE('',#216,29.);
#79=CIRCLE('',#218,29.);
#80=CIRCLE('',#219,29.);
#81=CIRCLE('',#221,27.4999999999999);
#82=CIRCLE('',#222,11.9999999999998);
#83=CIRCLE('',#224,7.99999999999938);
#84=CIRCLE('',#225,26.5);
#85=CIRCLE('',#226,26.5);
#86=VERTEX_POINT('',#302);
#87=VERTEX_POINT('',#304);
#88=VERTEX_POINT('',#308);
#89=VERTEX_POINT('',#311);
#90=VERTEX_POINT('',#315);
#91=VERTEX_POINT('',#317);
#92=VERTEX_POINT('',#321);
#93=VERTEX_POINT('',#325);
#94=VERTEX_POINT('',#327);
#95=VERTEX_POINT('',#331);
#96=VERTEX_POINT('',#335);
#97=VERTEX_POINT('',#338);
#98=VERTEX_POINT('',#339);
#99=VERTEX_POINT('',#344);
#100=VERTEX_POINT('',#348);
#101=VERTEX_POINT('',#350);
#102=EDGE_CURVE('',#86,#86,#66,.T.);
#103=EDGE_CURVE('',#86,#87,#54,.T.);
#104=EDGE_CURVE('',#87,#87,#67,.T.);
#105=EDGE_CURVE('',#88,#88,#68,.T.);
#106=EDGE_CURVE('',#88,#89,#55,.T.);
#107=EDGE_CURVE('',#89,#89,#69,.T.);
#108=EDGE_CURVE('',#89,#90,#56,.T.);
#109=EDGE_CURVE('',#91,#90,#70,.T.);
#110=EDGE_CURVE('',#90,#91,#71,.T.);
#111=EDGE_CURVE('',#92,#92,#72,.T.);
#112=EDGE_CURVE('',#92,#91,#73,.T.);
#113=EDGE_CURVE('',#92,#93,#74,.T.);
#114=EDGE_CURVE('',#94,#93,#75,.T.);
#115=EDGE_CURVE('',#93,#94,#76,.T.);
#116=EDGE_CURVE('',#94,#95,#57,.T.);
#117=EDGE_CURVE('',#95,#95,#77,.T.);
#118=EDGE_CURVE('',#96,#96,#78,.T.);
#119=EDGE_CURVE('',#97,#98,#79,.T.);
#120=EDGE_CURVE('',#98,#97,#80,.T.);
#121=EDGE_CURVE('',#98,#96,#58,.T.);
#122=EDGE_CURVE('',#99,#99,#81,.T.);
#123=EDGE_CURVE('',#99,#97,#82,.T.);
#124=EDGE_CURVE('',#99,#100,#83,.T.);
#125=EDGE_CURVE('',#101,#100,#84,.T.);
#126=EDGE_CURVE('',#100,#101,#85,.T.);
#127=EDGE_CURVE('',#87,#101,#59,.T.);
#128=ORIENTED_EDGE('',*,*,#102,.F.);
#129=ORIENTED_EDGE('',*,*,#103,.T.);
#130=ORIENTED_EDGE('',*,*,#104,.T.);
#131=ORIENTED_EDGE('',*,*,#103,.F.);
#132=ORIENTED_EDGE('',*,*,#102,.T.);
#133=ORIENTED_EDGE('',*,*,#105,.F.);
#134=ORIENTED_EDGE('',*,*,#105,.T.);
#135=ORIENTED_EDGE('',*,*,#106,.T.);
#136=ORIENTED_EDGE('',*,*,#107,.F.);
#137=ORIENTED_EDGE('',*,*,#106,.F.);
#138=ORIENTED_EDGE('',*,*,#107,.T.);
#139=ORIENTED_EDGE('',*,*,#108,.T.);
#140=ORIENTED_EDGE('',*,*,#109,.F.);
#141=ORIENTED_EDGE('',*,*,#110,.F.);
#142=ORIENTED_EDGE('',*,*,#108,.F.);
#143=ORIENTED_EDGE('',*,*,#111,.F.);
#144=ORIENTED_EDGE('',*,*,#112,.T.);
#145=ORIENTED_EDGE('',*,*,#109,.T.);
#146=ORIENTED_EDGE('',*,*,#110,.T.);
#147=ORIENTED_EDGE('',*,*,#112,.F.);
#148=ORIENTED_EDGE('',*,*,#111,.T.);
#149=ORIENTED_EDGE('',*,*,#113,.T.);
#150=ORIENTED_EDGE('',*,*,#114,.F.);
#151=ORIENTED_EDGE('',*,*,#115,.F.);
#152=ORIENTED_EDGE('',*,*,#113,.F.);
#153=ORIENTED_EDGE('',*,*,#115,.T.);
#154=ORIENTED_EDGE('',*,*,#116,.T.);
#155=ORIENTED_EDGE('',*,*,#117,.F.);
#156=ORIENTED_EDGE('',*,*,#116,.F.);
#157=ORIENTED_EDGE('',*,*,#114,.T.);
#158=ORIENTED_EDGE('',*,*,#118,.F.);
#159=ORIENTED_EDGE('',*,*,#117,.T.);
#160=ORIENTED_EDGE('',*,*,#119,.F.);
#161=ORIENTED_EDGE('',*,*,#120,.F.);
#162=ORIENTED_EDGE('',*,*,#121,.T.);
#163=ORIENTED_EDGE('',*,*,#118,.T.);
#164=ORIENTED_EDGE('',*,*,#121,.F.);
#165=ORIENTED_EDGE('',*,*,#122,.F.);
#166=ORIENTED_EDGE('',*,*,#123,.T.);
#167=ORIENTED_EDGE('',*,*,#119,.T.);
#168=ORIENTED_EDGE('',*,*,#120,.T.);
#169=ORIENTED_EDGE('',*,*,#123,.F.);
#170=ORIENTED_EDGE('',*,*,#122,.T.);
#171=ORIENTED_EDGE('',*,*,#124,.T.);
#172=ORIENTED_EDGE('',*,*,#125,.F.);
#173=ORIENTED_EDGE('',*,*,#126,.F.);
#174=ORIENTED_EDGE('',*,*,#124,.F.);
#175=ORIENTED_EDGE('',*,*,#104,.F.);
#176=ORIENTED_EDGE('',*,*,#127,.T.);
#177=ORIENTED_EDGE('',*,*,#125,.T.);
#178=ORIENTED_EDGE('',*,*,#126,.T.);
#179=ORIENTED_EDGE('',*,*,#127,.F.);
#180=CONICAL_SURFACE('',#196,26.2812783411852,0.0872664625997221);
#181=CONICAL_SURFACE('',#201,24.7784134630276,0.0872664625997008);
#182=ADVANCED_FACE('',(#28),#180,.T.);
#183=ADVANCED_FACE('',(#29,#24),#26,.T.);
#184=ADVANCED_FACE('',(#30),#181,.F.);
#185=ADVANCED_FACE('',(#31),#20,.F.);
#186=ADVANCED_FACE('',(#32),#16,.T.);
#187=ADVANCED_FACE('',(#33),#17,.F.);
#188=ADVANCED_FACE('',(#34),#21,.F.);
#189=ADVANCED_FACE('',(#35,#25),#27,.T.);
#190=ADVANCED_FACE('',(#36),#22,.T.);
#191=ADVANCED_FACE('',(#37),#18,.T.);
#192=ADVANCED_FACE('',(#38),#19,.F.);
#193=ADVANCED_FACE('',(#39),#23,.T.);
#194=CLOSED_SHELL('',(#182,#183,#184,#185,#186,#187,#188,#189,#190,#191,
#192,#193));
#195=AXIS2_PLACEMENT_3D('',#300,#228,#229);
#196=AXIS2_PLACEMENT_3D('',#301,#230,#231);
#197=AXIS2_PLACEMENT_3D('',#303,#232,#233);
#198=AXIS2_PLACEMENT_3D('',#306,#235,#236);
#199=AXIS2_PLACEMENT_3D('',#307,#237,#238);
#200=AXIS2_PLACEMENT_3D('',#309,#239,#240);
#201=AXIS2_PLACEMENT_3D('',#310,#241,#242);
#202=AXIS2_PLACEMENT_3D('',#313,#244,#245);
#203=AXIS2_PLACEMENT_3D('',#314,#246,#247);
#204=AXIS2_PLACEMENT_3D('',#318,#249,#250);
#205=AXIS2_PLACEMENT_3D('',#319,#251,#252);
#206=AXIS2_PLACEMENT_3D('',#320,#253,#254);
#207=AXIS2_PLACEMENT_3D('',#322,#255,#256);
#208=AXIS2_PLACEMENT_3D('',#323,#257,#258);
#209=AXIS2_PLACEMENT_3D('',#324,#259,#260);
#210=AXIS2_PLACEMENT_3D('',#326,#261,#262);
#211=AXIS2_PLACEMENT_3D('',#328,#263,#264);
#212=AXIS2_PLACEMENT_3D('',#329,#265,#266);
#213=AXIS2_PLACEMENT_3D('',#330,#267,#268);
#214=AXIS2_PLACEMENT_3D('',#333,#270,#271);
#215=AXIS2_PLACEMENT_3D('',#334,#272,#273);
#216=AXIS2_PLACEMENT_3D('',#336,#274,#275);
#217=AXIS2_PLACEMENT_3D('',#337,#276,#277);
#218=AXIS2_PLACEMENT_3D('',#340,#278,#279);
#219=AXIS2_PLACEMENT_3D('',#341,#280,#281);
#220=AXIS2_PLACEMENT_3D('',#343,#283,#284);
#221=AXIS2_PLACEMENT_3D('',#345,#285,#286);
#222=AXIS2_PLACEMENT_3D('',#346,#287,#288);
#223=AXIS2_PLACEMENT_3D('',#347,#289,#290);
#224=AXIS2_PLACEMENT_3D('',#349,#291,#292);
#225=AXIS2_PLACEMENT_3D('',#351,#293,#294);
#226=AXIS2_PLACEMENT_3D('',#352,#295,#296);
#227=AXIS2_PLACEMENT_3D('',#353,#297,#298);
#228=DIRECTION('axis',(0.,0.,1.));
#229=DIRECTION('refdir',(1.,0.,0.));
#230=DIRECTION('center_axis',(3.31126711810532E-15,6.12323399573677E-17,
1.));
#231=DIRECTION('ref_axis',(-1.,2.01122785204219E-31,3.28458434455141E-15));
#232=DIRECTION('center_axis',(-3.31126711810532E-15,-6.12323399573677E-17,
-1.));
#233=DIRECTION('ref_axis',(1.,-2.02756633865478E-31,-3.31126711810532E-15));
#234=DIRECTION('',(0.0871557427476671,5.03258322789573E-17,0.996194698091745));
#235=DIRECTION('center_axis',(-3.31126711810532E-15,-6.12323399573677E-17,
-1.));
#236=DIRECTION('ref_axis',(1.,-2.02756633865478E-31,-3.31126711810532E-15));
#237=DIRECTION('center_axis',(-3.31126711810532E-15,-6.12323399573677E-17,
-1.));
#238=DIRECTION('ref_axis',(0.,1.,-6.12323399573677E-17));
#239=DIRECTION('center_axis',(-3.31126711810532E-15,-6.12323399573677E-17,
-1.));
#240=DIRECTION('ref_axis',(1.,-2.02756633865478E-31,-3.31126711810532E-15));
#241=DIRECTION('center_axis',(3.31126711810532E-15,6.12323399573677E-17,
1.));
#242=DIRECTION('ref_axis',(-1.,2.01122785204219E-31,3.28458434455141E-15));
#243=DIRECTION('',(0.0871557427476459,5.032583227896E-17,0.996194698091747));
#244=DIRECTION('center_axis',(-3.31126711810532E-15,-6.12323399573677E-17,
-1.));
#245=DIRECTION('ref_axis',(1.,-2.02756633865478E-31,-3.31126711810532E-15));
#246=DIRECTION('center_axis',(-3.31126711810532E-15,-6.12323399573677E-17,
-1.));
#247=DIRECTION('ref_axis',(-1.,2.01122785204219E-31,3.28458434455141E-15));
#248=DIRECTION('',(3.31126711810532E-15,6.12323399573677E-17,1.));
#249=DIRECTION('center_axis',(-3.31126711810532E-15,-6.12323399573677E-17,
-1.));
#250=DIRECTION('ref_axis',(1.,-2.02756633865478E-31,-3.31126711810532E-15));
#251=DIRECTION('center_axis',(-3.31126711810532E-15,-6.12323399573677E-17,
-1.));
#252=DIRECTION('ref_axis',(1.,-2.02756633865478E-31,-3.31126711810532E-15));
#253=DIRECTION('center_axis',(-3.31126711810532E-15,-6.12323399573677E-17,
-1.));
#254=DIRECTION('ref_axis',(0.,1.,0.));
#255=DIRECTION('center_axis',(-3.31126711810532E-15,-6.12323399573677E-17,
-1.));
#256=DIRECTION('ref_axis',(1.,-2.02756633865478E-31,-3.31126711810532E-15));
#257=DIRECTION('center_axis',(-1.,2.02756633865478E-31,3.31126711810532E-15));
#258=DIRECTION('ref_axis',(0.,-1.,6.12323399573677E-17));
#259=DIRECTION('center_axis',(-3.31126711810532E-15,-6.12323399573677E-17,
-1.));
#260=DIRECTION('ref_axis',(0.,1.,0.));
#261=DIRECTION('center_axis',(-1.,2.02756633865478E-31,3.31126711810532E-15));
#262=DIRECTION('ref_axis',(0.,-1.,6.12323399573677E-17));
#263=DIRECTION('center_axis',(-3.31126711810532E-15,-6.12323399573677E-17,
-1.));
#264=DIRECTION('ref_axis',(1.,-2.02756633865478E-31,-3.31126711810532E-15));
#265=DIRECTION('center_axis',(-3.31126711810532E-15,-6.12323399573677E-17,
-1.));
#266=DIRECTION('ref_axis',(1.,-2.02756633865478E-31,-3.31126711810532E-15));
#267=DIRECTION('center_axis',(-3.31126711810532E-15,-6.12323399573677E-17,
-1.));
#268=DIRECTION('ref_axis',(-1.,2.01122785204219E-31,3.28458434455141E-15));
#269=DIRECTION('',(3.31126711810532E-15,6.12323399573677E-17,1.));
#270=DIRECTION('center_axis',(-3.31126711810532E-15,-6.12323399573677E-17,
-1.));
#271=DIRECTION('ref_axis',(1.,-2.02756633865478E-31,-3.31126711810532E-15));
#272=DIRECTION('center_axis',(3.31126711810532E-15,6.12323399573677E-17,
1.));
#273=DIRECTION('ref_axis',(0.,-1.,6.12323399573677E-17));
#274=DIRECTION('center_axis',(-3.31126711810532E-15,-6.12323399573677E-17,
-1.));
#275=DIRECTION('ref_axis',(1.,-2.02756633865478E-31,-3.31126711810532E-15));
#276=DIRECTION('center_axis',(-3.31126711810532E-15,-6.12323399573677E-17,
-1.));
#277=DIRECTION('ref_axis',(-1.,2.01122785204219E-31,3.28458434455141E-15));
#278=DIRECTION('center_axis',(-3.31126711810532E-15,-6.12323399573677E-17,
-1.));
#279=DIRECTION('ref_axis',(1.,-2.02756633865478E-31,-3.31126711810532E-15));
#280=DIRECTION('center_axis',(-3.31126711810532E-15,-6.12323399573677E-17,
-1.));
#281=DIRECTION('ref_axis',(1.,-2.02756633865478E-31,-3.31126711810532E-15));
#282=DIRECTION('',(3.31126711810532E-15,6.12323399573677E-17,1.));
#283=DIRECTION('center_axis',(-3.31126711810532E-15,-6.12323399573677E-17,
-1.));
#284=DIRECTION('ref_axis',(0.,1.,0.));
#285=DIRECTION('center_axis',(-3.31126711810532E-15,-6.12323399573677E-17,
-1.));
#286=DIRECTION('ref_axis',(1.,-2.02756633865478E-31,-3.31126711810532E-15));
#287=DIRECTION('center_axis',(-1.,2.02756633865478E-31,3.31126711810532E-15));
#288=DIRECTION('ref_axis',(0.,-1.,6.12323399573677E-17));
#289=DIRECTION('center_axis',(-3.31126711810532E-15,-6.12323399573677E-17,
-1.));
#290=DIRECTION('ref_axis',(0.,1.,0.));
#291=DIRECTION('center_axis',(-1.,2.02756633865478E-31,3.31126711810532E-15));
#292=DIRECTION('ref_axis',(0.,-1.,6.12323399573677E-17));
#293=DIRECTION('center_axis',(-3.31126711810532E-15,-6.12323399573677E-17,
-1.));
#294=DIRECTION('ref_axis',(1.,-2.02756633865478E-31,-3.31126711810532E-15));
#295=DIRECTION('center_axis',(-3.31126711810532E-15,-6.12323399573677E-17,
-1.));
#296=DIRECTION('ref_axis',(1.,-2.02756633865478E-31,-3.31126711810532E-15));
#297=DIRECTION('center_axis',(-3.31126711810532E-15,-6.12323399573677E-17,
-1.));
#298=DIRECTION('ref_axis',(-1.,2.01122785204219E-31,3.28458434455141E-15));
#299=DIRECTION('',(3.31126711810532E-15,6.12323399573677E-17,1.));
#300=CARTESIAN_POINT('',(0.,0.,0.));
#301=CARTESIAN_POINT('Origin',(0.,-2.00102969506783E-14,2.5));
#302=CARTESIAN_POINT('',(26.0625566823703,-2.33551204624378E-14,-8.5265128291212E-14));
#303=CARTESIAN_POINT('Origin',(0.,-2.01633778005717E-14,0.));
#304=CARTESIAN_POINT('',(26.5,-2.31025301185253E-14,4.99999999999989));
#305=CARTESIAN_POINT('',(26.2812783411852,-2.32288252904816E-14,2.49999999999991));
#306=CARTESIAN_POINT('Origin',(0.,-1.98572161007848E-14,4.99999999999997));
#307=CARTESIAN_POINT('Origin',(-24.5568269260554,-2.01633778005717E-14,
8.5265128291212E-14));
#308=CARTESIAN_POINT('',(24.5568269260553,-2.31707217497926E-14,-8.5265128291212E-14));
#309=CARTESIAN_POINT('Origin',(0.,-2.01633778005717E-14,0.));
#310=CARTESIAN_POINT('Origin',(0.,-2.0008291854404E-14,2.53274570718168));
#311=CARTESIAN_POINT('',(24.9999999999999,-2.29148229061046E-14,5.06549141436324));
#312=CARTESIAN_POINT('',(24.7784134630276,-2.30427723279486E-14,2.53274570718159));
#313=CARTESIAN_POINT('Origin',(0.,-1.98532059082363E-14,5.06549141436332));
#314=CARTESIAN_POINT('Origin',(1.13686837721616E-13,-1.83759129368771E-14,
29.1915165244225));
#315=CARTESIAN_POINT('',(25.0000000000002,-1.99602369633864E-14,53.3175416344816));
#316=CARTESIAN_POINT('',(25.0000000000001,-2.14375299347455E-14,29.1915165244224));
#317=CARTESIAN_POINT('',(1.70530256582424E-13,-25.,53.3175416344817));
#318=CARTESIAN_POINT('Origin',(1.70530256582424E-13,-1.6898619965518E-14,
53.3175416344817));
#319=CARTESIAN_POINT('Origin',(1.70530256582424E-13,-1.6898619965518E-14,
53.3175416344817));
#320=CARTESIAN_POINT('Origin',(1.70530256582424E-13,-1.6898619965518E-14,
53.3175416344815));
#321=CARTESIAN_POINT('',(1.70530256582424E-13,-26.1875000000001,57.9167093581031));
#322=CARTESIAN_POINT('Origin',(1.70530256582424E-13,-1.66170021639443E-14,
57.9167093581031));
#323=CARTESIAN_POINT('Origin',(1.70530256582424E-13,-34.5000000000007,53.3175416344815));
#324=CARTESIAN_POINT('Origin',(2.27373675443232E-13,-1.63057403832575E-14,
62.9999999999998));
#325=CARTESIAN_POINT('',(2.27373675443232E-13,-27.5,63.));
#326=CARTESIAN_POINT('Origin',(2.27373675443232E-13,-17.0000000000015,62.9999999999998));
#327=CARTESIAN_POINT('',(27.5000000000002,-1.96735190809127E-14,62.9999999999999));
#328=CARTESIAN_POINT('Origin',(2.27373675443232E-13,-1.63057403832575E-14,
63.));
#329=CARTESIAN_POINT('Origin',(2.27373675443232E-13,-1.63057403832575E-14,
63.));
#330=CARTESIAN_POINT('Origin',(2.8421709430404E-13,-1.5387255283897E-14,
78.));
#331=CARTESIAN_POINT('',(27.5000000000003,-1.78365488821917E-14,92.9999999999999));
#332=CARTESIAN_POINT('',(27.5000000000002,-1.87550339815522E-14,77.9999999999999));
#333=CARTESIAN_POINT('Origin',(3.41060513164848E-13,-1.44687701845365E-14,
93.));
#334=CARTESIAN_POINT('Origin',(-28.9999999999997,-1.44687701845365E-14,
93.0000000000001));
#335=CARTESIAN_POINT('',(29.0000000000003,-1.80202459020638E-14,92.9999999999999));
#336=CARTESIAN_POINT('Origin',(3.41060513164848E-13,-1.44687701845365E-14,
93.));
#337=CARTESIAN_POINT('Origin',(2.8421709430404E-13,-1.5387255283897E-14,
78.));
#338=CARTESIAN_POINT('',(2.27373675443232E-13,-29.,63.));
#339=CARTESIAN_POINT('',(29.0000000000002,-1.98572161007849E-14,62.9999999999999));
#340=CARTESIAN_POINT('Origin',(2.27373675443232E-13,-1.63057403832575E-14,
63.));
#341=CARTESIAN_POINT('Origin',(2.27373675443232E-13,-1.63057403832575E-14,
63.));
#342=CARTESIAN_POINT('',(29.0000000000003,-1.89387310014243E-14,77.9999999999999));
#343=CARTESIAN_POINT('Origin',(2.27373675443232E-13,-1.63057403832575E-14,
63.));
#344=CARTESIAN_POINT('',(2.27373675443232E-13,-27.4999999999999,57.1905249806888));
#345=CARTESIAN_POINT('Origin',(1.70530256582424E-13,-1.66614681326138E-14,
57.1905249806888));
#346=CARTESIAN_POINT('Origin',(2.27373675443232E-13,-17.0000000000002,63.));
#347=CARTESIAN_POINT('Origin',(1.70530256582424E-13,-1.6898619965518E-14,
53.3175416344817));
#348=CARTESIAN_POINT('',(1.70530256582424E-13,-26.5,53.3175416344817));
#349=CARTESIAN_POINT('Origin',(1.70530256582424E-13,-34.4999999999994,53.3175416344817));
#350=CARTESIAN_POINT('',(26.5000000000002,-2.01439339832585E-14,53.3175416344816));
#351=CARTESIAN_POINT('Origin',(1.70530256582424E-13,-1.6898619965518E-14,
53.3175416344817));
#352=CARTESIAN_POINT('Origin',(1.70530256582424E-13,-1.6898619965518E-14,
53.3175416344817));
#353=CARTESIAN_POINT('Origin',(1.13686837721616E-13,-1.83779180331514E-14,
29.1587708172408));
#354=CARTESIAN_POINT('',(26.5000000000001,-2.16232320508919E-14,29.1587708172407));
#355=UNCERTAINTY_MEASURE_WITH_UNIT(LENGTH_MEASURE(0.001),#359,
'DISTANCE_ACCURACY_VALUE',
'Maximum model space distance between geometric entities at asserted c
onnectivities');
#356=UNCERTAINTY_MEASURE_WITH_UNIT(LENGTH_MEASURE(0.001),#359,
'DISTANCE_ACCURACY_VALUE',
'Maximum model space distance between geometric entities at asserted c
onnectivities');
#357=(
GEOMETRIC_REPRESENTATION_CONTEXT(3)
GLOBAL_UNCERTAINTY_ASSIGNED_CONTEXT((#355))
GLOBAL_UNIT_ASSIGNED_CONTEXT((#359,#360,#361))
REPRESENTATION_CONTEXT('','3D')
);
#358=(
GEOMETRIC_REPRESENTATION_CONTEXT(3)
GLOBAL_UNCERTAINTY_ASSIGNED_CONTEXT((#356))
GLOBAL_UNIT_ASSIGNED_CONTEXT((#359,#360,#361))
REPRESENTATION_CONTEXT('','3D')
);
#359=(
LENGTH_UNIT()
NAMED_UNIT(*)
SI_UNIT(.CENTI.,.METRE.)
);
#360=(
NAMED_UNIT(*)
PLANE_ANGLE_UNIT()
SI_UNIT($,.RADIAN.)
);
#361=(
NAMED_UNIT(*)
SI_UNIT($,.STERADIAN.)
SOLID_ANGLE_UNIT()
);
#362=SHAPE_DEFINITION_REPRESENTATION(#363,#364);
#363=PRODUCT_DEFINITION_SHAPE('',$,#366);
#364=SHAPE_REPRESENTATION('',(#195),#357);
#365=PRODUCT_DEFINITION_CONTEXT('part definition',#370,'design');
#366=PRODUCT_DEFINITION('Product','Product',#367,#365);
#367=PRODUCT_DEFINITION_FORMATION('',$,#372);
#368=PRODUCT_RELATED_PRODUCT_CATEGORY('Product','Product',(#372));
#369=APPLICATION_PROTOCOL_DEFINITION('international standard',
'automotive_design',2009,#370);
#370=APPLICATION_CONTEXT(
'Core Data for Automotive Mechanical Design Process');
#371=PRODUCT_CONTEXT('part definition',#370,'mechanical');
#372=PRODUCT('Product','Product',$,(#371));
#373=PRESENTATION_STYLE_ASSIGNMENT((#374));
#374=SURFACE_STYLE_USAGE(.BOTH.,#375);
#375=SURFACE_SIDE_STYLE('',(#376));
#376=SURFACE_STYLE_FILL_AREA(#377);
#377=FILL_AREA_STYLE('',(#378));
#378=FILL_AREA_STYLE_COLOUR('',#379);
#379=COLOUR_RGB('',0.870588235294118,0.870588235294118,0.870588235294118);
ENDSEC;
END-ISO-10303-21;
